ISO-10303-21;
HEADER;
FILE_DESCRIPTION (( 'STEP AP203' ),
    '1' );
FILE_NAME ('Web Model 83473.STEP',
    '2017-02-01T15:23:18',
    ( '' ),
    ( '' ),
    'SwSTEP 2.0',
    'SolidWorks 2016',
    '' );
FILE_SCHEMA (( 'CONFIG_CONTROL_DESIGN' ));
ENDSEC;

DATA;
#1 = VERTEX_POINT ( 'NONE', #37 ) ;
#2 = EDGE_CURVE ( 'NONE', #90, #1, #101, .T. ) ;
#3 = CC_DESIGN_PERSON_AND_ORGANIZATION_ASSIGNMENT ( #214, #29, ( #96 ) ) ;
#4 = ORIENTED_EDGE ( 'NONE', *, *, #191, .F. ) ;
#5 = APPLICATION_CONTEXT ( 'configuration controlled 3d designs of mechanical parts and assemblies' ) ;
#6 = APPROVAL_ROLE ( '' ) ;
#7 = PLANE ( 'NONE',  #182 ) ;
#8 = CC_DESIGN_PERSON_AND_ORGANIZATION_ASSIGNMENT ( #178, #208, ( #94 ) ) ;
#9 = ORIENTED_EDGE ( 'NONE', *, *, #72, .T. ) ;
#10 = ORIENTED_EDGE ( 'NONE', *, *, #27, .T. ) ;
#11 = PLANE ( 'NONE',  #173 ) ;
#12 = CARTESIAN_POINT ( 'NONE',  ( -12.50000000000000200, 12.50000000000000000, 4.000000000000000000 ) ) ;
#13 = PERSON_AND_ORGANIZATION ( #188, #124 ) ;
#14 = PERSON_AND_ORGANIZATION ( #188, #124 ) ;
#15 = DIRECTION ( 'NONE',  ( 1.000000000000000000, 0.0000000000000000000, 0.0000000000000000000 ) ) ;
#16 = LINE ( 'NONE', #75, #200 ) ;
#17 = APPLICATION_CONTEXT ( 'configuration controlled 3d designs of mechanical parts and assemblies' ) ;
#18 = CARTESIAN_POINT ( 'NONE',  ( -12.50000000000000200, 12.50000000000000000, 4.000000000000000000 ) ) ;
#19 = LINE ( 'NONE', #20, #234 ) ;
#20 = CARTESIAN_POINT ( 'NONE',  ( -12.50000000000000000, -12.50000000000000000, 4.000000000000000000 ) ) ;
#21 = CC_DESIGN_APPROVAL ( #224, ( #96 ) ) ;
#22 = PERSON_AND_ORGANIZATION ( #188, #124 ) ;
#23 = ORIENTED_EDGE ( 'NONE', *, *, #105, .F. ) ;
#24 = ADVANCED_FACE ( 'NONE', ( #169 ), #198, .F. ) ;
#25 = ORIENTED_EDGE ( 'NONE', *, *, #122, .T. ) ;
#26 = ADVANCED_BREP_SHAPE_REPRESENTATION ( 'Web Model 83473', ( #106, #129 ), #186 ) ;
#27 = EDGE_CURVE ( 'NONE', #1, #43, #19, .T. ) ;
#28 = CALENDAR_DATE ( 2017, 1, 2 ) ;
#29 = PERSON_AND_ORGANIZATION_ROLE ( 'design_supplier' ) ;
#30 = DATE_AND_TIME ( #201, #77 ) ;
#31 = FACE_OUTER_BOUND ( 'NONE', #83, .T. ) ;
#32 = DIRECTION ( 'NONE',  ( 1.000000000000000000, 0.0000000000000000000, 0.0000000000000000000 ) ) ;
#33 = LOCAL_TIME ( 10, 23, 18.00000000000000000, #81 ) ;
#34 = COORDINATED_UNIVERSAL_TIME_OFFSET ( 5, 0, .BEHIND. ) ;
#35 = EDGE_CURVE ( 'NONE', #43, #204, #203, .T. ) ;
#36 = ORIENTED_EDGE ( 'NONE', *, *, #105, .T. ) ;
#37 = CARTESIAN_POINT ( 'NONE',  ( -12.50000000000000000, -12.50000000000000000, 4.000000000000000000 ) ) ;
#38 = PRODUCT_DEFINITION_SHAPE ( 'NONE', 'NONE',  #235 ) ;
#39 = CARTESIAN_POINT ( 'NONE',  ( -12.50000000000000200, 12.50000000000000000, 0.0000000000000000000 ) ) ;
#40 = EDGE_CURVE ( 'NONE', #204, #223, #16, .T. ) ;
#41 = EDGE_LOOP ( 'NONE', ( #25, #4, #146, #9 ) ) ;
#42 = FACE_OUTER_BOUND ( 'NONE', #91, .T. ) ;
#43 = VERTEX_POINT ( 'NONE', #183 ) ;
#44 = APPROVAL_ROLE ( '' ) ;
#45 = CARTESIAN_POINT ( 'NONE',  ( 12.49999999999999600, 12.50000000000000000, 0.0000000000000000000 ) ) ;
#46 = APPROVAL_PERSON_ORGANIZATION ( #119, #166, #112 ) ;
#47 = CC_DESIGN_APPROVAL ( #218, ( #235 ) ) ;
#48 = ORIENTED_EDGE ( 'NONE', *, *, #2, .T. ) ;
#49 = CARTESIAN_POINT ( 'NONE',  ( -12.50000000000000200, 12.50000000000000000, 4.000000000000000000 ) ) ;
#50 = PRODUCT_RELATED_PRODUCT_CATEGORY ( 'detail', '', ( #94 ) ) ;
#51 = CARTESIAN_POINT ( 'NONE',  ( -12.50000000000000000, -12.50000000000000000, 4.000000000000000000 ) ) ;
#52 = DIRECTION ( 'NONE',  ( -0.0000000000000000000, -0.0000000000000000000, -1.000000000000000000 ) ) ;
#53 = EDGE_CURVE ( 'NONE', #63, #43, #95, .T. ) ;
#54 = CC_DESIGN_PERSON_AND_ORGANIZATION_ASSIGNMENT ( #221, #100, ( #96 ) ) ;
#55 = DIRECTION ( 'NONE',  ( 0.0000000000000000000, 0.0000000000000000000, 1.000000000000000000 ) ) ;
#56 = DIRECTION ( 'NONE',  ( -1.387778780781445700E-016, 1.000000000000000000, -0.0000000000000000000 ) ) ;
#57 = DIRECTION ( 'NONE',  ( 6.938893903907228400E-017, -1.000000000000000000, 0.0000000000000000000 ) ) ;
#58 = CC_DESIGN_PERSON_AND_ORGANIZATION_ASSIGNMENT ( #13, #206, ( #79 ) ) ;
#59 = CALENDAR_DATE ( 2017, 1, 2 ) ;
#60 = ORIENTED_EDGE ( 'NONE', *, *, #53, .F. ) ;
#61 = AXIS2_PLACEMENT_3D ( 'NONE', #18, #141, #126 ) ;
#62 = VECTOR ( 'NONE', #197, 1000.000000000000000 ) ;
#63 = VERTEX_POINT ( 'NONE', #39 ) ;
#64 = DATE_TIME_ROLE ( 'classification_date' ) ;
#65 = DIRECTION ( 'NONE',  ( -1.000000000000000000, -0.0000000000000000000, -0.0000000000000000000 ) ) ;
#66 = ORIENTED_EDGE ( 'NONE', *, *, #164, .F. ) ;
#67 = COORDINATED_UNIVERSAL_TIME_OFFSET ( 5, 0, .BEHIND. ) ;
#68 = CARTESIAN_POINT ( 'NONE',  ( 12.50000000000000000, -12.50000000000000000, 4.000000000000000000 ) ) ;
#69 = CARTESIAN_POINT ( 'NONE',  ( -12.50000000000000200, 12.50000000000000000, 0.0000000000000000000 ) ) ;
#70 = ORIENTED_EDGE ( 'NONE', *, *, #164, .T. ) ;
#71 = DIRECTION ( 'NONE',  ( 1.000000000000000000, 0.0000000000000000000, 0.0000000000000000000 ) ) ;
#72 = EDGE_CURVE ( 'NONE', #209, #223, #135, .T. ) ;
#73 = CARTESIAN_POINT ( 'NONE',  ( 0.0000000000000000000, 0.0000000000000000000, 0.0000000000000000000 ) ) ;
#74 = COORDINATED_UNIVERSAL_TIME_OFFSET ( 5, 0, .BEHIND. ) ;
#75 = CARTESIAN_POINT ( 'NONE',  ( 12.49999999999999600, 12.50000000000000000, 0.0000000000000000000 ) ) ;
#76 = FACE_OUTER_BOUND ( 'NONE', #179, .T. ) ;
#77 = LOCAL_TIME ( 10, 23, 18.00000000000000000, #74 ) ;
#78 = ADVANCED_FACE ( 'NONE', ( #31 ), #156, .F. ) ;
#79 = SECURITY_CLASSIFICATION ( '', '', #170 ) ;
#80 = EDGE_LOOP ( 'NONE', ( #212, #158, #111, #109 ) ) ;
#81 = COORDINATED_UNIVERSAL_TIME_OFFSET ( 5, 0, .BEHIND. ) ;
#82 = LOCAL_TIME ( 10, 23, 18.00000000000000000, #89 ) ;
#83 = EDGE_LOOP ( 'NONE', ( #108, #232, #60, #160 ) ) ;
#84 = DIRECTION ( 'NONE',  ( -6.938893903907228400E-017, 1.000000000000000000, 0.0000000000000000000 ) ) ;
#85 = CARTESIAN_POINT ( 'NONE',  ( 12.50000000000000000, -12.50000000000000000, 4.000000000000000000 ) ) ;
#86 = DIRECTION ( 'NONE',  ( -0.0000000000000000000, 0.0000000000000000000, 1.000000000000000000 ) ) ;
#87 = PLANE ( 'NONE',  #202 ) ;
#88 = EDGE_CURVE ( 'NONE', #209, #90, #157, .T. ) ;
#89 = COORDINATED_UNIVERSAL_TIME_OFFSET ( 5, 0, .BEHIND. ) ;
#90 = VERTEX_POINT ( 'NONE', #49 ) ;
#91 = EDGE_LOOP ( 'NONE', ( #93, #23, #66, #10 ) ) ;
#92 = ADVANCED_FACE ( 'NONE', ( #136 ), #192, .T. ) ;
#93 = ORIENTED_EDGE ( 'NONE', *, *, #35, .T. ) ;
#94 = PRODUCT ( 'Web Model 83473', 'Web Model 83473', '', ( #98 ) ) ;
#95 = LINE ( 'NONE', #144, #236 ) ;
#96 = PRODUCT_DEFINITION_FORMATION_WITH_SPECIFIED_SOURCE ( 'ANY', '', #94, .NOT_KNOWN. ) ;
#97 = ADVANCED_FACE ( 'NONE', ( #123 ), #7, .F. ) ;
#98 = MECHANICAL_CONTEXT ( 'NONE', #17, 'mechanical' ) ;
#99 = AXIS2_PLACEMENT_3D ( 'NONE', #155, #137, #171 ) ;
#100 = PERSON_AND_ORGANIZATION_ROLE ( 'creator' ) ;
#101 = LINE ( 'NONE', #125, #145 ) ;
#102 = DIRECTION ( 'NONE',  ( 1.000000000000000000, 6.938893903907228400E-017, -0.0000000000000000000 ) ) ;
#103 = VECTOR ( 'NONE', #151, 1000.000000000000000 ) ;
#104 =( NAMED_UNIT ( * ) SI_UNIT ( $, .STERADIAN. ) SOLID_ANGLE_UNIT ( ) );
#105 = EDGE_CURVE ( 'NONE', #130, #204, #217, .T. ) ;
#106 = MANIFOLD_SOLID_BREP ( 'Extrude1', #152 ) ;
#107 = DIRECTION ( 'NONE',  ( 6.938893903907228400E-017, -1.000000000000000000, 0.0000000000000000000 ) ) ;
#108 = ORIENTED_EDGE ( 'NONE', *, *, #40, .F. ) ;
#109 = ORIENTED_EDGE ( 'NONE', *, *, #191, .T. ) ;
#110 = ADVANCED_FACE ( 'NONE', ( #76 ), #87, .F. ) ;
#111 = ORIENTED_EDGE ( 'NONE', *, *, #2, .F. ) ;
#112 = APPROVAL_ROLE ( '' ) ;
#113 = DIRECTION ( 'NONE',  ( 0.0000000000000000000, -0.0000000000000000000, 1.000000000000000000 ) ) ;
#114 = APPROVAL_STATUS ( 'not_yet_approved' ) ;
#115 = VECTOR ( 'NONE', #32, 1000.000000000000000 ) ;
#116 = DIRECTION ( 'NONE',  ( -1.000000000000000000, -1.387778780781445700E-016, 0.0000000000000000000 ) ) ;
#117 = AXIS2_PLACEMENT_3D ( 'NONE', #85, #86, #71 ) ;
#118 = CARTESIAN_POINT ( 'NONE',  ( 12.49999999999999600, 12.50000000000000000, 4.000000000000000000 ) ) ;
#119 = PERSON_AND_ORGANIZATION ( #188, #124 ) ;
#120 = ORIENTED_EDGE ( 'NONE', *, *, #88, .T. ) ;
#121 = APPLICATION_PROTOCOL_DEFINITION ( 'international standard', 'config_control_design', 1994, #17 ) ;
#122 = EDGE_CURVE ( 'NONE', #223, #63, #128, .T. ) ;
#123 = FACE_OUTER_BOUND ( 'NONE', #80, .T. ) ;
#124 = ORGANIZATION ( 'UNSPECIFIED', 'UNSPECIFIED', '' ) ;
#125 = CARTESIAN_POINT ( 'NONE',  ( -12.50000000000000200, 12.50000000000000000, 4.000000000000000000 ) ) ;
#126 = DIRECTION ( 'NONE',  ( 0.0000000000000000000, -0.0000000000000000000, -1.000000000000000000 ) ) ;
#127 = ADVANCED_FACE ( 'NONE', ( #42 ), #11, .F. ) ;
#128 = LINE ( 'NONE', #69, #131 ) ;
#129 = AXIS2_PLACEMENT_3D ( 'NONE', #73, #55, #15 ) ;
#130 = VERTEX_POINT ( 'NONE', #177 ) ;
#131 = VECTOR ( 'NONE', #65, 1000.000000000000000 ) ;
#132 = APPROVAL_STATUS ( 'not_yet_approved' ) ;
#133 = APPROVAL_STATUS ( 'not_yet_approved' ) ;
#134 = DIRECTION ( 'NONE',  ( -0.0000000000000000000, -0.0000000000000000000, -1.000000000000000000 ) ) ;
#135 = LINE ( 'NONE', #161, #181 ) ;
#136 = FACE_OUTER_BOUND ( 'NONE', #225, .T. ) ;
#137 = DIRECTION ( 'NONE',  ( -0.0000000000000000000, 0.0000000000000000000, 1.000000000000000000 ) ) ;
#138 = DATE_AND_TIME ( #28, #219 ) ;
#139 =( NAMED_UNIT ( * ) PLANE_ANGLE_UNIT ( ) SI_UNIT ( $, .RADIAN. ) );
#140 = ORIENTED_EDGE ( 'NONE', *, *, #72, .F. ) ;
#141 = DIRECTION ( 'NONE',  ( 0.0000000000000000000, -1.000000000000000000, 0.0000000000000000000 ) ) ;
#142 = DATE_AND_TIME ( #184, #33 ) ;
#143 = CC_DESIGN_DATE_AND_TIME_ASSIGNMENT ( #142, #189, ( #235 ) ) ;
#144 = CARTESIAN_POINT ( 'NONE',  ( -12.50000000000000200, 12.50000000000000000, 0.0000000000000000000 ) ) ;
#145 = VECTOR ( 'NONE', #107, 1000.000000000000000 ) ;
#146 = ORIENTED_EDGE ( 'NONE', *, *, #88, .F. ) ;
#147 = APPROVAL_PERSON_ORGANIZATION ( #195, #224, #6 ) ;
#148 = VECTOR ( 'NONE', #154, 1000.000000000000000 ) ;
#149 = ORIENTED_EDGE ( 'NONE', *, *, #230, .T. ) ;
#150 = PERSON_AND_ORGANIZATION_ROLE ( 'creator' ) ;
#151 = DIRECTION ( 'NONE',  ( -1.387778780781445700E-016, 1.000000000000000000, -0.0000000000000000000 ) ) ;
#152 = CLOSED_SHELL ( 'NONE', ( #110, #24, #97, #127, #92, #78 ) ) ;
#153 = CARTESIAN_POINT ( 'NONE',  ( 12.50000000000000000, -12.50000000000000000, 0.0000000000000000000 ) ) ;
#154 = DIRECTION ( 'NONE',  ( -1.000000000000000000, -0.0000000000000000000, -0.0000000000000000000 ) ) ;
#155 = CARTESIAN_POINT ( 'NONE',  ( 12.50000000000000000, -12.50000000000000000, 0.0000000000000000000 ) ) ;
#156 = PLANE ( 'NONE',  #99 ) ;
#157 = LINE ( 'NONE', #12, #148 ) ;
#158 = ORIENTED_EDGE ( 'NONE', *, *, #27, .F. ) ;
#159 = CARTESIAN_POINT ( 'NONE',  ( -12.50000000000000000, -12.50000000000000000, 0.0000000000000000000 ) ) ;
#160 = ORIENTED_EDGE ( 'NONE', *, *, #122, .F. ) ;
#161 = CARTESIAN_POINT ( 'NONE',  ( 12.49999999999999600, 12.50000000000000000, 4.000000000000000000 ) ) ;
#162 = LINE ( 'NONE', #213, #220 ) ;
#163 = LINE ( 'NONE', #118, #103 ) ;
#164 = EDGE_CURVE ( 'NONE', #1, #130, #172, .T. ) ;
#165 = APPROVAL_DATE_TIME ( #30, #166 ) ;
#166 = APPROVAL ( #132, 'UNSPECIFIED' ) ;
#167 = ORIENTED_EDGE ( 'NONE', *, *, #230, .F. ) ;
#168 = UNCERTAINTY_MEASURE_WITH_UNIT (LENGTH_MEASURE( 1.000000000000000100E-005 ), #231, 'distance_accuracy_value', 'NONE');
#169 = FACE_OUTER_BOUND ( 'NONE', #41, .T. ) ;
#170 = SECURITY_CLASSIFICATION_LEVEL ( 'unclassified' ) ;
#171 = DIRECTION ( 'NONE',  ( 1.000000000000000000, 0.0000000000000000000, 0.0000000000000000000 ) ) ;
#172 = LINE ( 'NONE', #228, #115 ) ;
#173 = AXIS2_PLACEMENT_3D ( 'NONE', #51, #211, #113 ) ;
#174 = DIRECTION ( 'NONE',  ( -0.0000000000000000000, -0.0000000000000000000, -1.000000000000000000 ) ) ;
#175 = CC_DESIGN_SECURITY_CLASSIFICATION ( #79, ( #96 ) ) ;
#176 = CARTESIAN_POINT ( 'NONE',  ( -12.50000000000000200, 12.50000000000000000, 4.000000000000000000 ) ) ;
#177 = CARTESIAN_POINT ( 'NONE',  ( 12.50000000000000000, -12.50000000000000000, 4.000000000000000000 ) ) ;
#178 = PERSON_AND_ORGANIZATION ( #188, #124 ) ;
#179 = EDGE_LOOP ( 'NONE', ( #194, #140, #167, #36 ) ) ;
#180 = DATE_AND_TIME ( #185, #82 ) ;
#181 = VECTOR ( 'NONE', #52, 1000.000000000000000 ) ;
#182 = AXIS2_PLACEMENT_3D ( 'NONE', #176, #102, #84 ) ;
#183 = CARTESIAN_POINT ( 'NONE',  ( -12.50000000000000000, -12.50000000000000000, 0.0000000000000000000 ) ) ;
#184 = CALENDAR_DATE ( 2017, 1, 2 ) ;
#185 = CALENDAR_DATE ( 2017, 1, 2 ) ;
#186 =( GEOMETRIC_REPRESENTATION_CONTEXT ( 3 ) GLOBAL_UNCERTAINTY_ASSIGNED_CONTEXT ( ( #168 ) ) GLOBAL_UNIT_ASSIGNED_CONTEXT ( ( #231, #139, #104 ) ) REPRESENTATION_CONTEXT ( 'NONE', 'WORKASPACE' ) );
#187 = CC_DESIGN_DATE_AND_TIME_ASSIGNMENT ( #215, #64, ( #79 ) ) ;
#188 = PERSON ( 'UNSPECIFIED', 'UNSPECIFIED', 'UNSPECIFIED', ('UNSPECIFIED'), ('UNSPECIFIED'), ('UNSPECIFIED') ) ;
#189 = DATE_TIME_ROLE ( 'creation_date' ) ;
#190 = CARTESIAN_POINT ( 'NONE',  ( 12.49999999999999600, 12.50000000000000000, 4.000000000000000000 ) ) ;
#191 = EDGE_CURVE ( 'NONE', #90, #63, #162, .T. ) ;
#192 = PLANE ( 'NONE',  #117 ) ;
#193 = DIRECTION ( 'NONE',  ( 1.387778780781445700E-016, -1.000000000000000000, 0.0000000000000000000 ) ) ;
#194 = ORIENTED_EDGE ( 'NONE', *, *, #40, .T. ) ;
#195 = PERSON_AND_ORGANIZATION ( #188, #124 ) ;
#196 = APPROVAL_PERSON_ORGANIZATION ( #14, #218, #44 ) ;
#197 = DIRECTION ( 'NONE',  ( 1.000000000000000000, 0.0000000000000000000, 0.0000000000000000000 ) ) ;
#198 = PLANE ( 'NONE',  #61 ) ;
#199 = CC_DESIGN_APPROVAL ( #166, ( #79 ) ) ;
#200 = VECTOR ( 'NONE', #56, 1000.000000000000000 ) ;
#201 = CALENDAR_DATE ( 2017, 1, 2 ) ;
#202 = AXIS2_PLACEMENT_3D ( 'NONE', #190, #116, #193 ) ;
#203 = LINE ( 'NONE', #159, #62 ) ;
#204 = VERTEX_POINT ( 'NONE', #153 ) ;
#205 = DESIGN_CONTEXT ( 'detailed design', #5, 'design' ) ;
#206 = PERSON_AND_ORGANIZATION_ROLE ( 'classification_officer' ) ;
#207 = SHAPE_DEFINITION_REPRESENTATION ( #38, #26 ) ;
#208 = PERSON_AND_ORGANIZATION_ROLE ( 'design_owner' ) ;
#209 = VERTEX_POINT ( 'NONE', #210 ) ;
#210 = CARTESIAN_POINT ( 'NONE',  ( 12.49999999999999600, 12.50000000000000000, 4.000000000000000000 ) ) ;
#211 = DIRECTION ( 'NONE',  ( 0.0000000000000000000, 1.000000000000000000, 0.0000000000000000000 ) ) ;
#212 = ORIENTED_EDGE ( 'NONE', *, *, #53, .T. ) ;
#213 = CARTESIAN_POINT ( 'NONE',  ( -12.50000000000000200, 12.50000000000000000, 4.000000000000000000 ) ) ;
#214 = PERSON_AND_ORGANIZATION ( #188, #124 ) ;
#215 = DATE_AND_TIME ( #59, #216 ) ;
#216 = LOCAL_TIME ( 10, 23, 18.00000000000000000, #34 ) ;
#217 = LINE ( 'NONE', #68, #233 ) ;
#218 = APPROVAL ( #114, 'UNSPECIFIED' ) ;
#219 = LOCAL_TIME ( 10, 23, 18.00000000000000000, #67 ) ;
#220 = VECTOR ( 'NONE', #134, 1000.000000000000000 ) ;
#221 = PERSON_AND_ORGANIZATION ( #188, #124 ) ;
#222 = APPROVAL_DATE_TIME ( #138, #218 ) ;
#223 = VERTEX_POINT ( 'NONE', #45 ) ;
#224 = APPROVAL ( #133, 'UNSPECIFIED' ) ;
#225 = EDGE_LOOP ( 'NONE', ( #149, #120, #48, #70 ) ) ;
#226 = APPLICATION_PROTOCOL_DEFINITION ( 'international standard', 'config_control_design', 1994, #5 ) ;
#227 = APPROVAL_DATE_TIME ( #180, #224 ) ;
#228 = CARTESIAN_POINT ( 'NONE',  ( -12.50000000000000000, -12.50000000000000000, 4.000000000000000000 ) ) ;
#229 = CC_DESIGN_PERSON_AND_ORGANIZATION_ASSIGNMENT ( #22, #150, ( #235 ) ) ;
#230 = EDGE_CURVE ( 'NONE', #130, #209, #163, .T. ) ;
#231 =( LENGTH_UNIT ( ) NAMED_UNIT ( * ) SI_UNIT ( .MILLI., .METRE. ) );
#232 = ORIENTED_EDGE ( 'NONE', *, *, #35, .F. ) ;
#233 = VECTOR ( 'NONE', #174, 1000.000000000000000 ) ;
#234 = VECTOR ( 'NONE', #237, 1000.000000000000000 ) ;
#235 = PRODUCT_DEFINITION ( 'UNKNOWN', '', #96, #205 ) ;
#236 = VECTOR ( 'NONE', #57, 1000.000000000000000 ) ;
#237 = DIRECTION ( 'NONE',  ( -0.0000000000000000000, -0.0000000000000000000, -1.000000000000000000 ) ) ;
ENDSEC;
END-ISO-10303-21;
