ISO-10303-21;
HEADER;
FILE_DESCRIPTION (( 'STEP AP203' ),
    '1' );
FILE_NAME ('24984-E0W.STEP',
    '2012-09-28T16:14:28',
    ( 'Admin' ),
    ( 'Thorlabs, Inc.' ),
    'SwSTEP 2.0',
    'SolidWorks 2011',
    '' );
FILE_SCHEMA (( 'CONFIG_CONTROL_DESIGN' ));
ENDSEC;

DATA;
#1 = EDGE_LOOP ( 'NONE', ( #15, #24 ) ) ;
#2 = ORIENTED_EDGE ( 'NONE', *, *, #5, .T. ) ;
#3 = ORIENTED_EDGE ( 'NONE', *, *, #19, .F. ) ;
#4 = ADVANCED_FACE ( 'NONE', ( #141 ), #117, .F. ) ;
#5 = EDGE_CURVE ( 'NONE', #40, #111, #100, .T. ) ;
#6 = ORIENTED_EDGE ( 'NONE', *, *, #95, .T. ) ;
#7 = ADVANCED_FACE ( 'NONE', ( #139 ), #165, .T. ) ;
#8 = EDGE_LOOP ( 'NONE', ( #6, #17, #47 ) ) ;
#9 = ORIENTED_EDGE ( 'NONE', *, *, #191, .F. ) ;
#10 = ADVANCED_FACE ( 'NONE', ( #140 ), #112, .T. ) ;
#11 = ORIENTED_EDGE ( 'NONE', *, *, #16, .F. ) ;
#12 = ORIENTED_EDGE ( 'NONE', *, *, #61, .F. ) ;
#13 = EDGE_CURVE ( 'NONE', #50, #119, #167, .T. ) ;
#14 = EDGE_LOOP ( 'NONE', ( #26, #36, #37, #41 ) ) ;
#15 = ORIENTED_EDGE ( 'NONE', *, *, #51, .F. ) ;
#16 = EDGE_CURVE ( 'NONE', #40, #20, #135, .T. ) ;
#17 = ORIENTED_EDGE ( 'NONE', *, *, #16, .T. ) ;
#18 = EDGE_LOOP ( 'NONE', ( #11, #2, #53 ) ) ;
#19 = EDGE_CURVE ( 'NONE', #54, #42, #182, .T. ) ;
#20 = VERTEX_POINT ( 'NONE', #138 ) ;
#21 = EDGE_LOOP ( 'NONE', ( #12, #33, #28, #32 ) ) ;
#22 = EDGE_CURVE ( 'NONE', #119, #42, #178, .T. ) ;
#23 = ADVANCED_FACE ( 'NONE', ( #184 ), #170, .T. ) ;
#24 = ORIENTED_EDGE ( 'NONE', *, *, #27, .F. ) ;
#25 = EDGE_CURVE ( 'NONE', #194, #60, #172, .T. ) ;
#26 = ORIENTED_EDGE ( 'NONE', *, *, #192, .F. ) ;
#27 = EDGE_CURVE ( 'NONE', #50, #54, #177, .T. ) ;
#28 = ORIENTED_EDGE ( 'NONE', *, *, #59, .T. ) ;
#29 = ORIENTED_EDGE ( 'NONE', *, *, #19, .T. ) ;
#30 = ORIENTED_EDGE ( 'NONE', *, *, #27, .T. ) ;
#31 = ORIENTED_EDGE ( 'NONE', *, *, #22, .F. ) ;
#32 = ORIENTED_EDGE ( 'NONE', *, *, #25, .F. ) ;
#33 = ORIENTED_EDGE ( 'NONE', *, *, #22, .T. ) ;
#34 = ADVANCED_FACE ( 'NONE', ( #126 ), #197, .T. ) ;
#35 = ORIENTED_EDGE ( 'NONE', *, *, #13, .F. ) ;
#36 = ORIENTED_EDGE ( 'NONE', *, *, #5, .F. ) ;
#37 = ORIENTED_EDGE ( 'NONE', *, *, #118, .T. ) ;
#38 = ADVANCED_FACE ( 'NONE', ( #164 ), #207, .T. ) ;
#39 = EDGE_LOOP ( 'NONE', ( #35, #30, #29, #31 ) ) ;
#40 = VERTEX_POINT ( 'NONE', #157 ) ;
#41 = ORIENTED_EDGE ( 'NONE', *, *, #25, .T. ) ;
#42 = VERTEX_POINT ( 'NONE', #158 ) ;
#43 = ADVANCED_FACE ( 'NONE', ( #155 ), #203, .T. ) ;
#44 = EDGE_LOOP ( 'NONE', ( #190, #58, #66, #57 ) ) ;
#45 = EDGE_LOOP ( 'NONE', ( #94, #132, #131, #133 ) ) ;
#46 = CLOSED_SHELL ( 'NONE', ( #43, #134, #55, #10, #7, #4, #38, #23, #34 ) ) ;
#47 = ORIENTED_EDGE ( 'NONE', *, *, #48, .F. ) ;
#48 = EDGE_CURVE ( 'NONE', #111, #20, #122, .T. ) ;
#49 = ORIENTED_EDGE ( 'NONE', *, *, #13, .T. ) ;
#50 = VERTEX_POINT ( 'NONE', #152 ) ;
#51 = EDGE_CURVE ( 'NONE', #54, #50, #153, .T. ) ;
#52 = ORIENTED_EDGE ( 'NONE', *, *, #51, .T. ) ;
#53 = ORIENTED_EDGE ( 'NONE', *, *, #48, .T. ) ;
#54 = VERTEX_POINT ( 'NONE', #143 ) ;
#55 = ADVANCED_FACE ( 'NONE', ( #149 ), #156, .T. ) ;
#56 = EDGE_LOOP ( 'NONE', ( #52, #49, #9, #3 ) ) ;
#57 = ORIENTED_EDGE ( 'NONE', *, *, #59, .F. ) ;
#58 = ORIENTED_EDGE ( 'NONE', *, *, #61, .T. ) ;
#59 = EDGE_CURVE ( 'NONE', #42, #60, #154, .T. ) ;
#60 = VERTEX_POINT ( 'NONE', #84 ) ;
#61 = EDGE_CURVE ( 'NONE', #119, #194, #77, .T. ) ;
#62 = DIRECTION ( 'NONE',  ( 0.7071067811865345800, 8.659560562354775100E-017, -0.7071067811865604500 ) ) ;
#63 = VECTOR ( 'NONE', #62, 1000.000000000000000 ) ;
#64 = CARTESIAN_POINT ( 'NONE',  ( 12.69999999999999900, 1.555301434917138400E-015, -0.2958560360304188200 ) ) ;
#65 = LINE ( 'NONE', #64, #63 ) ;
#66 = ORIENTED_EDGE ( 'NONE', *, *, #193, .F. ) ;
#67 = CARTESIAN_POINT ( 'NONE',  ( -12.69999999999999900, 1.555301434917138400E-015, -2.068602266249566700 ) ) ;
#68 = DIRECTION ( 'NONE',  ( 1.000000000000000000, 0.0000000000000000000, 0.0000000000000000000 ) ) ;
#69 = DIRECTION ( 'NONE',  ( -0.0000000000000000000, -0.0000000000000000000, 1.000000000000000000 ) ) ;
#70 = CARTESIAN_POINT ( 'NONE',  ( 0.0000000000000000000, 0.0000000000000000000, -0.1544346797931056600 ) ) ;
#71 = FACE_OUTER_BOUND ( 'NONE', #44, .T. ) ;
#72 = CARTESIAN_POINT ( 'NONE',  ( 0.0000000000000000000, 0.0000000000000000000, 39.55482590683998700 ) ) ;
#73 = CIRCLE ( 'NONE', #106, 12.69999999999999900 ) ;
#74 = CIRCLE ( 'NONE', #79, 12.55857864376269200 ) ;
#75 = DIRECTION ( 'NONE',  ( -0.0000000000000000000, -0.0000000000000000000, 1.000000000000000000 ) ) ;
#76 = VECTOR ( 'NONE', #75, 1000.000000000000000 ) ;
#77 = LINE ( 'NONE', #86, #76 ) ;
#78 = CARTESIAN_POINT ( 'NONE',  ( -12.69999999999999900, 0.0000000000000000000, -0.2958560360304188200 ) ) ;
#79 = AXIS2_PLACEMENT_3D ( 'NONE', #70, #69, #68 ) ;
#80 = LINE ( 'NONE', #78, #109 ) ;
#81 = DIRECTION ( 'NONE',  ( -0.0000000000000000000, -0.0000000000000000000, 1.000000000000000000 ) ) ;
#82 = VECTOR ( 'NONE', #81, 1000.000000000000000 ) ;
#83 = CARTESIAN_POINT ( 'NONE',  ( 12.69999999999999900, 0.0000000000000000000, 39.55482590683998700 ) ) ;
#84 = CARTESIAN_POINT ( 'NONE',  ( 12.69999999999999900, 0.0000000000000000000, -0.2958560360304188200 ) ) ;
#85 = CYLINDRICAL_SURFACE ( 'NONE', #110, 12.69999999999999900 ) ;
#86 = CARTESIAN_POINT ( 'NONE',  ( -12.69999999999999900, 1.555301434917138400E-015, 39.55482590683998700 ) ) ;
#87 = CARTESIAN_POINT ( 'NONE',  ( 12.55857864376269700, 0.0000000000000000000, -0.1544346797931056600 ) ) ;
#88 = DIRECTION ( 'NONE',  ( 1.000000000000000000, 0.0000000000000000000, 0.0000000000000000000 ) ) ;
#89 = DIRECTION ( 'NONE',  ( 1.000000000000000000, 0.0000000000000000000, 0.0000000000000000000 ) ) ;
#90 = DIRECTION ( 'NONE',  ( -0.0000000000000000000, -0.0000000000000000000, 1.000000000000000000 ) ) ;
#91 = CARTESIAN_POINT ( 'NONE',  ( 0.0000000000000000000, 0.0000000000000000000, -2.210023622486879900 ) ) ;
#92 = AXIS2_PLACEMENT_3D ( 'NONE', #91, #90, #89 ) ;
#93 = DIRECTION ( 'NONE',  ( -0.0000000000000000000, -0.0000000000000000000, 1.000000000000000000 ) ) ;
#94 = ORIENTED_EDGE ( 'NONE', *, *, #95, .F. ) ;
#95 = EDGE_CURVE ( 'NONE', #111, #40, #74, .T. ) ;
#96 = DIRECTION ( 'NONE',  ( 1.000000000000000000, 0.0000000000000000000, 0.0000000000000000000 ) ) ;
#97 = DIRECTION ( 'NONE',  ( -0.0000000000000000000, -0.0000000000000000000, 1.000000000000000000 ) ) ;
#98 = CARTESIAN_POINT ( 'NONE',  ( 0.0000000000000000000, 0.0000000000000000000, -0.1544346797931056600 ) ) ;
#99 = AXIS2_PLACEMENT_3D ( 'NONE', #98, #97, #96 ) ;
#100 = CIRCLE ( 'NONE', #99, 12.55857864376269200 ) ;
#101 = DIRECTION ( 'NONE',  ( 1.000000000000000000, 0.0000000000000000000, 0.0000000000000000000 ) ) ;
#102 = DIRECTION ( 'NONE',  ( 1.000000000000000000, 0.0000000000000000000, 0.0000000000000000000 ) ) ;
#103 = DIRECTION ( 'NONE',  ( -0.0000000000000000000, -0.0000000000000000000, 1.000000000000000000 ) ) ;
#104 = CARTESIAN_POINT ( 'NONE',  ( 0.0000000000000000000, 0.0000000000000000000, -2.068602266249566700 ) ) ;
#105 = DIRECTION ( 'NONE',  ( 1.000000000000000000, 0.0000000000000000000, 0.0000000000000000000 ) ) ;
#106 = AXIS2_PLACEMENT_3D ( 'NONE', #104, #103, #102 ) ;
#107 = DIRECTION ( 'NONE',  ( -0.0000000000000000000, -0.0000000000000000000, 1.000000000000000000 ) ) ;
#108 = DIRECTION ( 'NONE',  ( -0.7071067811865345800, 0.0000000000000000000, -0.7071067811865604500 ) ) ;
#109 = VECTOR ( 'NONE', #108, 1000.000000000000000 ) ;
#110 = AXIS2_PLACEMENT_3D ( 'NONE', #72, #107, #105 ) ;
#111 = VERTEX_POINT ( 'NONE', #87 ) ;
#112 = TOROIDAL_SURFACE ( 'NONE', #169, 0.004645728877362281800, 34.50999999999999800 ) ;
#113 = DIRECTION ( 'NONE',  ( 1.000000000000000000, 0.0000000000000000000, 0.0000000000000000000 ) ) ;
#114 = DIRECTION ( 'NONE',  ( 0.0000000000000000000, -0.0000000000000000000, 1.000000000000000000 ) ) ;
#115 = CARTESIAN_POINT ( 'NONE',  ( 0.0000000000000000000, 0.0000000000000000000, -2.210023622486876300 ) ) ;
#116 = AXIS2_PLACEMENT_3D ( 'NONE', #115, #114, #113 ) ;
#117 = PLANE ( 'NONE',  #116 ) ;
#118 = EDGE_CURVE ( 'NONE', #40, #194, #80, .T. ) ;
#119 = VERTEX_POINT ( 'NONE', #67 ) ;
#120 = MANIFOLD_SOLID_BREP ( '24984-001-1-solid1', #46 ) ;
#121 = CARTESIAN_POINT ( 'NONE',  ( 0.0000000000000000000, 0.0000000000000000000, -2.210023622486879900 ) ) ;
#122 = CIRCLE ( 'NONE', #147, 34.51000000000000500 ) ;
#123 = CARTESIAN_POINT ( 'NONE',  ( 0.0000000000000000000, 0.0000000000000000000, -0.2958560360304188200 ) ) ;
#124 = AXIS2_PLACEMENT_3D ( 'NONE', #123, #151, #150 ) ;
#125 = DIRECTION ( 'NONE',  ( 1.000000000000000000, 0.0000000000000000000, 0.0000000000000000000 ) ) ;
#126 = FACE_OUTER_BOUND ( 'NONE', #14, .T. ) ;
#127 = DIRECTION ( 'NONE',  ( -0.0000000000000000000, -0.0000000000000000000, 1.000000000000000000 ) ) ;
#128 = CARTESIAN_POINT ( 'NONE',  ( 0.0000000000000000000, 0.0000000000000000000, -2.210023622486879900 ) ) ;
#129 = DIRECTION ( 'NONE',  ( 1.000000000000000000, 0.0000000000000000000, 0.0000000000000000000 ) ) ;
#130 = AXIS2_PLACEMENT_3D ( 'NONE', #195, #176, #129 ) ;
#131 = ORIENTED_EDGE ( 'NONE', *, *, #193, .T. ) ;
#132 = ORIENTED_EDGE ( 'NONE', *, *, #192, .T. ) ;
#133 = ORIENTED_EDGE ( 'NONE', *, *, #118, .F. ) ;
#134 = ADVANCED_FACE ( 'NONE', ( #71 ), #85, .T. ) ;
#135 = CIRCLE ( 'NONE', #168, 34.50999999999999800 ) ;
#136 = CARTESIAN_POINT ( 'NONE',  ( 0.0000000000000000000, 0.0000000000000000000, -32.30002330978335600 ) ) ;
#137 = AXIS2_PLACEMENT_3D ( 'NONE', #136, #142, #101 ) ;
#138 = CARTESIAN_POINT ( 'NONE',  ( 0.0000000000000000000, 0.0000000000000000000, 2.209976377513124000 ) ) ;
#139 = FACE_OUTER_BOUND ( 'NONE', #18, .T. ) ;
#140 = FACE_OUTER_BOUND ( 'NONE', #8, .T. ) ;
#141 = FACE_OUTER_BOUND ( 'NONE', #1, .T. ) ;
#142 = DIRECTION ( 'NONE',  ( -0.0000000000000000000, -0.0000000000000000000, 1.000000000000000000 ) ) ;
#143 = CARTESIAN_POINT ( 'NONE',  ( 12.55857864376269000, 0.0000000000000000000, -2.210023622486879900 ) ) ;
#144 = DIRECTION ( 'NONE',  ( 0.0000000000000000000, 0.0000000000000000000, -1.000000000000000000 ) ) ;
#145 = DIRECTION ( 'NONE',  ( 0.0000000000000000000, -1.000000000000000000, 0.0000000000000000000 ) ) ;
#146 = CARTESIAN_POINT ( 'NONE',  ( 0.004645728877362281800, 0.0000000000000000000, -32.30002330978335600 ) ) ;
#147 = AXIS2_PLACEMENT_3D ( 'NONE', #146, #145, #144 ) ;
#148 = AXIS2_PLACEMENT_3D ( 'NONE', #208, #93, #88 ) ;
#149 = FACE_OUTER_BOUND ( 'NONE', #56, .T. ) ;
#150 = DIRECTION ( 'NONE',  ( -1.000000000000000000, 0.0000000000000000000, 0.0000000000000000000 ) ) ;
#151 = DIRECTION ( 'NONE',  ( 0.0000000000000000000, 0.0000000000000000000, -1.000000000000000000 ) ) ;
#152 = CARTESIAN_POINT ( 'NONE',  ( -12.55857864376269000, 1.546641874354783400E-015, -2.210023622486879900 ) ) ;
#153 = CIRCLE ( 'NONE', #92, 12.55857864376269000 ) ;
#154 = LINE ( 'NONE', #83, #82 ) ;
#155 = FACE_OUTER_BOUND ( 'NONE', #45, .T. ) ;
#156 = CONICAL_SURFACE ( 'NONE', #148, 12.55857864376269000, 0.7853981633974360700 ) ;
#157 = CARTESIAN_POINT ( 'NONE',  ( -12.55857864376269700, 1.537982313792429600E-015, -0.1544346797931056600 ) ) ;
#158 = CARTESIAN_POINT ( 'NONE',  ( 12.69999999999999900, 0.0000000000000000000, -2.068602266249566700 ) ) ;
#159 = DIRECTION ( 'NONE',  ( -1.000000000000000000, 0.0000000000000000000, 0.0000000000000000000 ) ) ;
#160 = DIRECTION ( 'NONE',  ( 0.0000000000000000000, 0.0000000000000000000, -1.000000000000000000 ) ) ;
#161 = CARTESIAN_POINT ( 'NONE',  ( 0.0000000000000000000, 0.0000000000000000000, -0.2958560360304188200 ) ) ;
#162 = AXIS2_PLACEMENT_3D ( 'NONE', #161, #160, #159 ) ;
#163 = AXIS2_PLACEMENT_3D ( 'NONE', #121, #127, #199 ) ;
#164 = FACE_OUTER_BOUND ( 'NONE', #39, .T. ) ;
#165 = TOROIDAL_SURFACE ( 'NONE', #137, 0.004645728877362281800, 34.50999999999999800 ) ;
#166 = CARTESIAN_POINT ( 'NONE',  ( -12.55857864376269000, 1.537982313792428700E-015, -2.210023622486879900 ) ) ;
#167 = LINE ( 'NONE', #166, #186 ) ;
#168 = AXIS2_PLACEMENT_3D ( 'NONE', #181, #180, #179 ) ;
#169 = AXIS2_PLACEMENT_3D ( 'NONE', #189, #188, #187 ) ;
#170 = CYLINDRICAL_SURFACE ( 'NONE', #171, 12.69999999999999900 ) ;
#171 = AXIS2_PLACEMENT_3D ( 'NONE', #202, #201, #200 ) ;
#172 = CIRCLE ( 'NONE', #130, 12.69999999999999900 ) ;
#173 = DIRECTION ( 'NONE',  ( 0.7071067811865388000, 0.0000000000000000000, 0.7071067811865561200 ) ) ;
#174 = VECTOR ( 'NONE', #173, 1000.000000000000100 ) ;
#175 = CARTESIAN_POINT ( 'NONE',  ( 12.55857864376269000, 0.0000000000000000000, -2.210023622486879900 ) ) ;
#176 = DIRECTION ( 'NONE',  ( -0.0000000000000000000, -0.0000000000000000000, 1.000000000000000000 ) ) ;
#177 = CIRCLE ( 'NONE', #198, 12.55857864376269000 ) ;
#178 = CIRCLE ( 'NONE', #183, 12.69999999999999900 ) ;
#179 = DIRECTION ( 'NONE',  ( -1.000000000000000000, 1.224646799147353200E-016, 0.0000000000000000000 ) ) ;
#180 = DIRECTION ( 'NONE',  ( 1.224646799147353200E-016, 1.000000000000000000, 0.0000000000000000000 ) ) ;
#181 = CARTESIAN_POINT ( 'NONE',  ( -0.004645728877362281800, 5.689376999368144400E-019, -32.30002330978335600 ) ) ;
#182 = LINE ( 'NONE', #175, #174 ) ;
#183 = AXIS2_PLACEMENT_3D ( 'NONE', #206, #205, #204 ) ;
#184 = FACE_OUTER_BOUND ( 'NONE', #21, .T. ) ;
#185 = DIRECTION ( 'NONE',  ( -0.7071067811865388000, 8.659560562354826900E-017, 0.7071067811865561200 ) ) ;
#186 = VECTOR ( 'NONE', #185, 1000.000000000000100 ) ;
#187 = DIRECTION ( 'NONE',  ( 1.000000000000000000, 0.0000000000000000000, 0.0000000000000000000 ) ) ;
#188 = DIRECTION ( 'NONE',  ( -0.0000000000000000000, -0.0000000000000000000, 1.000000000000000000 ) ) ;
#189 = CARTESIAN_POINT ( 'NONE',  ( 0.0000000000000000000, 0.0000000000000000000, -32.30002330978335600 ) ) ;
#190 = ORIENTED_EDGE ( 'NONE', *, *, #191, .T. ) ;
#191 = EDGE_CURVE ( 'NONE', #42, #119, #73, .T. ) ;
#192 = EDGE_CURVE ( 'NONE', #111, #60, #65, .T. ) ;
#193 = EDGE_CURVE ( 'NONE', #60, #194, #296, .T. ) ;
#194 = VERTEX_POINT ( 'NONE', #297 ) ;
#195 = CARTESIAN_POINT ( 'NONE',  ( 0.0000000000000000000, 0.0000000000000000000, -0.2958560360304188200 ) ) ;
#196 = DIRECTION ( 'NONE',  ( -0.0000000000000000000, -0.0000000000000000000, 1.000000000000000000 ) ) ;
#197 = CONICAL_SURFACE ( 'NONE', #162, 12.69999999999999900, 0.7853981633974300700 ) ;
#198 = AXIS2_PLACEMENT_3D ( 'NONE', #128, #196, #125 ) ;
#199 = DIRECTION ( 'NONE',  ( 1.000000000000000000, 0.0000000000000000000, 0.0000000000000000000 ) ) ;
#200 = DIRECTION ( 'NONE',  ( 1.000000000000000000, 0.0000000000000000000, 0.0000000000000000000 ) ) ;
#201 = DIRECTION ( 'NONE',  ( -0.0000000000000000000, -0.0000000000000000000, 1.000000000000000000 ) ) ;
#202 = CARTESIAN_POINT ( 'NONE',  ( 0.0000000000000000000, 0.0000000000000000000, 39.55482590683998700 ) ) ;
#203 = CONICAL_SURFACE ( 'NONE', #124, 12.69999999999999900, 0.7853981633974300700 ) ;
#204 = DIRECTION ( 'NONE',  ( 1.000000000000000000, 0.0000000000000000000, 0.0000000000000000000 ) ) ;
#205 = DIRECTION ( 'NONE',  ( -0.0000000000000000000, -0.0000000000000000000, 1.000000000000000000 ) ) ;
#206 = CARTESIAN_POINT ( 'NONE',  ( 0.0000000000000000000, 0.0000000000000000000, -2.068602266249566700 ) ) ;
#207 = CONICAL_SURFACE ( 'NONE', #163, 12.55857864376269000, 0.7853981633974360700 ) ;
#208 = CARTESIAN_POINT ( 'NONE',  ( 0.0000000000000000000, 0.0000000000000000000, -2.210023622486879900 ) ) ;
#209 = LOCAL_TIME ( 12, 14, 28.00000000000000000, #210 ) ;
#210 = COORDINATED_UNIVERSAL_TIME_OFFSET ( 5, 0, .BEHIND. ) ;
#211 = APPROVAL_PERSON_ORGANIZATION ( #215, #213, #212 ) ;
#212 = APPROVAL_ROLE ( '' ) ;
#213 = APPROVAL ( #214, 'UNSPECIFIED' ) ;
#214 = APPROVAL_STATUS ( 'not_yet_approved' ) ;
#215 = PERSON_AND_ORGANIZATION ( #281, #280 ) ;
#216 = CC_DESIGN_DATE_AND_TIME_ASSIGNMENT ( #218, #217, ( #225 ) ) ;
#217 = DATE_TIME_ROLE ( 'classification_date' ) ;
#218 = DATE_AND_TIME ( #219, #220 ) ;
#219 = CALENDAR_DATE ( 2012, 28, 9 ) ;
#220 = LOCAL_TIME ( 12, 14, 28.00000000000000000, #221 ) ;
#221 = COORDINATED_UNIVERSAL_TIME_OFFSET ( 5, 0, .BEHIND. ) ;
#222 = CC_DESIGN_PERSON_AND_ORGANIZATION_ASSIGNMENT ( #224, #223, ( #225 ) ) ;
#223 = PERSON_AND_ORGANIZATION_ROLE ( 'classification_officer' ) ;
#224 = PERSON_AND_ORGANIZATION ( #281, #280 ) ;
#225 = SECURITY_CLASSIFICATION ( '', '', #226 ) ;
#226 = SECURITY_CLASSIFICATION_LEVEL ( 'unclassified' ) ;
#227 = CC_DESIGN_PERSON_AND_ORGANIZATION_ASSIGNMENT ( #229, #228, ( #244 ) ) ;
#228 = PERSON_AND_ORGANIZATION_ROLE ( 'design_supplier' ) ;
#229 = PERSON_AND_ORGANIZATION ( #281, #280 ) ;
#230 = CC_DESIGN_PERSON_AND_ORGANIZATION_ASSIGNMENT ( #232, #231, ( #244 ) ) ;
#231 = PERSON_AND_ORGANIZATION_ROLE ( 'creator' ) ;
#232 = PERSON_AND_ORGANIZATION ( #281, #280 ) ;
#233 = CC_DESIGN_APPROVAL ( #241, ( #244 ) ) ;
#234 = APPROVAL_DATE_TIME ( #235, #241 ) ;
#235 = DATE_AND_TIME ( #236, #237 ) ;
#236 = CALENDAR_DATE ( 2012, 28, 9 ) ;
#237 = LOCAL_TIME ( 12, 14, 28.00000000000000000, #238 ) ;
#238 = COORDINATED_UNIVERSAL_TIME_OFFSET ( 5, 0, .BEHIND. ) ;
#239 = APPROVAL_PERSON_ORGANIZATION ( #243, #241, #240 ) ;
#240 = APPROVAL_ROLE ( '' ) ;
#241 = APPROVAL ( #242, 'UNSPECIFIED' ) ;
#242 = APPROVAL_STATUS ( 'not_yet_approved' ) ;
#243 = PERSON_AND_ORGANIZATION ( #281, #280 ) ;
#244 = PRODUCT_DEFINITION_FORMATION_WITH_SPECIFIED_SOURCE ( 'ANY', '', #282, .NOT_KNOWN. ) ;
#245 = SHAPE_DEFINITION_REPRESENTATION ( #252, #285 ) ;
#246 = CC_DESIGN_DATE_AND_TIME_ASSIGNMENT ( #248, #247, ( #273 ) ) ;
#247 = DATE_TIME_ROLE ( 'creation_date' ) ;
#248 = DATE_AND_TIME ( #249, #250 ) ;
#249 = CALENDAR_DATE ( 2012, 28, 9 ) ;
#250 = LOCAL_TIME ( 12, 14, 28.00000000000000000, #251 ) ;
#251 = COORDINATED_UNIVERSAL_TIME_OFFSET ( 5, 0, .BEHIND. ) ;
#252 = PRODUCT_DEFINITION_SHAPE ( 'NONE', 'NONE',  #273 ) ;
#253 = PRODUCT_RELATED_PRODUCT_CATEGORY ( 'detail', '', ( #282 ) ) ;
#254 = CC_DESIGN_SECURITY_CLASSIFICATION ( #225, ( #244 ) ) ;
#255 = CC_DESIGN_APPROVAL ( #213, ( #225 ) ) ;
#256 = APPROVAL_DATE_TIME ( #257, #213 ) ;
#257 = DATE_AND_TIME ( #258, #209 ) ;
#258 = CALENDAR_DATE ( 2012, 28, 9 ) ;
#259 = CC_DESIGN_PERSON_AND_ORGANIZATION_ASSIGNMENT ( #261, #260, ( #273 ) ) ;
#260 = PERSON_AND_ORGANIZATION_ROLE ( 'creator' ) ;
#261 = PERSON_AND_ORGANIZATION ( #281, #280 ) ;
#262 = CC_DESIGN_APPROVAL ( #270, ( #273 ) ) ;
#263 = APPROVAL_DATE_TIME ( #264, #270 ) ;
#264 = DATE_AND_TIME ( #265, #266 ) ;
#265 = CALENDAR_DATE ( 2012, 28, 9 ) ;
#266 = LOCAL_TIME ( 12, 14, 28.00000000000000000, #267 ) ;
#267 = COORDINATED_UNIVERSAL_TIME_OFFSET ( 5, 0, .BEHIND. ) ;
#268 = APPROVAL_PERSON_ORGANIZATION ( #272, #270, #269 ) ;
#269 = APPROVAL_ROLE ( '' ) ;
#270 = APPROVAL ( #271, 'UNSPECIFIED' ) ;
#271 = APPROVAL_STATUS ( 'not_yet_approved' ) ;
#272 = PERSON_AND_ORGANIZATION ( #281, #280 ) ;
#273 = PRODUCT_DEFINITION ( 'UNKNOWN', '', #244, #274 ) ;
#274 = DESIGN_CONTEXT ( 'detailed design', #276, 'design' ) ;
#275 = APPLICATION_PROTOCOL_DEFINITION ( 'international standard', 'config_control_design', 1994, #276 ) ;
#276 = APPLICATION_CONTEXT ( 'configuration controlled 3d designs of mechanical parts and assemblies' ) ;
#277 = CC_DESIGN_PERSON_AND_ORGANIZATION_ASSIGNMENT ( #279, #278, ( #282 ) ) ;
#278 = PERSON_AND_ORGANIZATION_ROLE ( 'design_owner' ) ;
#279 = PERSON_AND_ORGANIZATION ( #281, #280 ) ;
#280 = ORGANIZATION ( 'UNSPECIFIED', 'UNSPECIFIED', '' ) ;
#281 = PERSON ( 'UNSPECIFIED', 'UNSPECIFIED', 'UNSPECIFIED', ('UNSPECIFIED'), ('UNSPECIFIED'), ('UNSPECIFIED') ) ;
#282 = PRODUCT ( '24984-E0W', '24984-E0W', '', ( #283 ) ) ;
#283 = MECHANICAL_CONTEXT ( 'NONE', #298, 'mechanical' ) ;
#284 = APPLICATION_PROTOCOL_DEFINITION ( 'international standard', 'config_control_design', 1994, #298 ) ;
#285 = ADVANCED_BREP_SHAPE_REPRESENTATION ( '24984-E0W', ( #120, #301 ), #286 ) ;
#286 =( GEOMETRIC_REPRESENTATION_CONTEXT ( 3 ) GLOBAL_UNCERTAINTY_ASSIGNED_CONTEXT ( ( #287 ) ) GLOBAL_UNIT_ASSIGNED_CONTEXT ( ( #290, #289, #288 ) ) REPRESENTATION_CONTEXT ( 'NONE', 'WORKASPACE' ) );
#287 = UNCERTAINTY_MEASURE_WITH_UNIT (LENGTH_MEASURE( 1.000000000000000100E-005 ), #290, 'distance_accuracy_value', 'NONE');
#288 =( NAMED_UNIT ( * ) SI_UNIT ( $, .STERADIAN. ) SOLID_ANGLE_UNIT ( ) );
#289 =( NAMED_UNIT ( * ) PLANE_ANGLE_UNIT ( ) SI_UNIT ( $, .RADIAN. ) );
#290 =( LENGTH_UNIT ( ) NAMED_UNIT ( * ) SI_UNIT ( .MILLI., .METRE. ) );
#291 = CARTESIAN_POINT ( 'NONE',  ( 0.0000000000000000000, 0.0000000000000000000, 0.0000000000000000000 ) ) ;
#292 = DIRECTION ( 'NONE',  ( 1.000000000000000000, 0.0000000000000000000, 0.0000000000000000000 ) ) ;
#293 = DIRECTION ( 'NONE',  ( -0.0000000000000000000, -0.0000000000000000000, 1.000000000000000000 ) ) ;
#294 = CARTESIAN_POINT ( 'NONE',  ( 0.0000000000000000000, 0.0000000000000000000, -0.2958560360304188200 ) ) ;
#295 = AXIS2_PLACEMENT_3D ( 'NONE', #294, #293, #292 ) ;
#296 = CIRCLE ( 'NONE', #295, 12.69999999999999900 ) ;
#297 = CARTESIAN_POINT ( 'NONE',  ( -12.69999999999999900, 1.555301434917138400E-015, -0.2958560360304188200 ) ) ;
#298 = APPLICATION_CONTEXT ( 'configuration controlled 3d designs of mechanical parts and assemblies' ) ;
#299 = DIRECTION ( 'NONE',  ( 1.000000000000000000, 0.0000000000000000000, 0.0000000000000000000 ) ) ;
#300 = DIRECTION ( 'NONE',  ( 0.0000000000000000000, 0.0000000000000000000, 1.000000000000000000 ) ) ;
#301 = AXIS2_PLACEMENT_3D ( 'NONE', #291, #300, #299 ) ;
ENDSEC;
END-ISO-10303-21;
