ISO-10303-21;
HEADER;
FILE_DESCRIPTION (( 'STEP AP203' ),
    '1' );
FILE_NAME ('Web Model 46609_45324.step',
    '2017-04-10T17:56:44',
    ( '' ),
    ( '' ),
    'SwSTEP 2.0',
    'SolidWorks 2016',
    '' );
FILE_SCHEMA (( 'CONFIG_CONTROL_DESIGN' ));
ENDSEC;

DATA;
#1 = ORIENTED_EDGE ( 'NONE', *, *, #171, .T. ) ;
#2 = COORDINATED_UNIVERSAL_TIME_OFFSET ( 5, 0, .BEHIND. ) ;
#3 = CALENDAR_DATE ( 2017, 10, 4 ) ;
#4 = FACE_OUTER_BOUND ( 'NONE', #10, .T. ) ;
#5 = VERTEX_POINT ( 'NONE', #166 ) ;
#6 = APPLICATION_PROTOCOL_DEFINITION ( 'international standard', 'config_control_design', 1994, #83 ) ;
#7 = LINE ( 'NONE', #220, #126 ) ;
#8 = CLOSED_SHELL ( 'NONE', ( #123, #144, #118, #182, #148, #30 ) ) ;
#9 = APPROVAL_PERSON_ORGANIZATION ( #195, #167, #231 ) ;
#10 = EDGE_LOOP ( 'NONE', ( #205, #11, #18, #84 ) ) ;
#11 = ORIENTED_EDGE ( 'NONE', *, *, #171, .F. ) ;
#12 = EDGE_CURVE ( 'NONE', #86, #183, #7, .T. ) ;
#13 = VECTOR ( 'NONE', #48, 1000.000000000000000 ) ;
#14 = PLANE ( 'NONE',  #66 ) ;
#15 = PERSON_AND_ORGANIZATION ( #78, #21 ) ;
#16 = DIRECTION ( 'NONE',  ( -0.0000000000000000000, -0.0000000000000000000, -1.000000000000000000 ) ) ;
#17 = LOCAL_TIME ( 13, 56, 44.00000000000000000, #2 ) ;
#18 = ORIENTED_EDGE ( 'NONE', *, *, #96, .F. ) ;
#19 = PERSON_AND_ORGANIZATION_ROLE ( 'creator' ) ;
#20 = LOCAL_TIME ( 13, 56, 44.00000000000000000, #223 ) ;
#21 = ORGANIZATION ( 'UNSPECIFIED', 'UNSPECIFIED', '' ) ;
#22 = COORDINATED_UNIVERSAL_TIME_OFFSET ( 5, 0, .BEHIND. ) ;
#23 = LINE ( 'NONE', #232, #55 ) ;
#24 = CARTESIAN_POINT ( 'NONE',  ( -17.50000000000000000, 17.50000000000000000, 0.5000000000000000000 ) ) ;
#25 = CALENDAR_DATE ( 2017, 10, 4 ) ;
#26 = DIRECTION ( 'NONE',  ( -0.0000000000000000000, 0.0000000000000000000, -1.000000000000000000 ) ) ;
#27 = APPROVAL_ROLE ( '' ) ;
#28 = APPROVAL_DATE_TIME ( #50, #85 ) ;
#29 = CC_DESIGN_PERSON_AND_ORGANIZATION_ASSIGNMENT ( #57, #19, ( #173 ) ) ;
#30 = ADVANCED_FACE ( 'NONE', ( #4 ), #162, .F. ) ;
#31 = VECTOR ( 'NONE', #191, 1000.000000000000000 ) ;
#32 = DIRECTION ( 'NONE',  ( -0.0000000000000000000, -0.0000000000000000000, -1.000000000000000000 ) ) ;
#33 = DIRECTION ( 'NONE',  ( -0.0000000000000000000, 1.000000000000000000, -0.0000000000000000000 ) ) ;
#34 = LINE ( 'NONE', #160, #13 ) ;
#35 = ORIENTED_EDGE ( 'NONE', *, *, #172, .F. ) ;
#36 = UNCERTAINTY_MEASURE_WITH_UNIT (LENGTH_MEASURE( 1.000000000000000100E-005 ), #88, 'distance_accuracy_value', 'NONE');
#37 = DIRECTION ( 'NONE',  ( 0.0000000000000000000, -1.000000000000000000, 0.0000000000000000000 ) ) ;
#38 = DIRECTION ( 'NONE',  ( 1.000000000000000000, 0.0000000000000000000, 0.0000000000000000000 ) ) ;
#39 = FACE_OUTER_BOUND ( 'NONE', #206, .T. ) ;
#40 = LINE ( 'NONE', #109, #234 ) ;
#41 = CARTESIAN_POINT ( 'NONE',  ( 17.50000000000000000, 17.50000000000000000, -0.5000000000000000000 ) ) ;
#42 = FACE_OUTER_BOUND ( 'NONE', #215, .T. ) ;
#43 = PERSON_AND_ORGANIZATION ( #78, #21 ) ;
#44 = VERTEX_POINT ( 'NONE', #227 ) ;
#45 = EDGE_LOOP ( 'NONE', ( #194, #163, #108, #151 ) ) ;
#46 = CARTESIAN_POINT ( 'NONE',  ( -17.50000000000000000, 17.50000000000000000, -0.5000000000000000000 ) ) ;
#47 = DIRECTION ( 'NONE',  ( -1.000000000000000000, -0.0000000000000000000, -0.0000000000000000000 ) ) ;
#48 = DIRECTION ( 'NONE',  ( 1.000000000000000000, 0.0000000000000000000, 0.0000000000000000000 ) ) ;
#49 = CARTESIAN_POINT ( 'NONE',  ( 0.0000000000000000000, 0.0000000000000000000, -0.5000000000000000000 ) ) ;
#50 = DATE_AND_TIME ( #87, #106 ) ;
#51 = CARTESIAN_POINT ( 'NONE',  ( -17.50000000000000000, -17.50000000000000000, -0.5000000000000000000 ) ) ;
#52 = PLANE ( 'NONE',  #217 ) ;
#53 = FACE_OUTER_BOUND ( 'NONE', #235, .T. ) ;
#54 = CARTESIAN_POINT ( 'NONE',  ( 0.0000000000000000000, 0.0000000000000000000, 0.5000000000000000000 ) ) ;
#55 = VECTOR ( 'NONE', #113, 1000.000000000000000 ) ;
#56 = CC_DESIGN_SECURITY_CLASSIFICATION ( #159, ( #145 ) ) ;
#57 = PERSON_AND_ORGANIZATION ( #78, #21 ) ;
#58 = ORIENTED_EDGE ( 'NONE', *, *, #202, .T. ) ;
#59 = APPROVAL_PERSON_ORGANIZATION ( #146, #85, #27 ) ;
#60 = ORIENTED_EDGE ( 'NONE', *, *, #114, .T. ) ;
#61 = DIRECTION ( 'NONE',  ( 1.000000000000000000, 0.0000000000000000000, 0.0000000000000000000 ) ) ;
#62 = LINE ( 'NONE', #132, #31 ) ;
#63 = CC_DESIGN_PERSON_AND_ORGANIZATION_ASSIGNMENT ( #150, #99, ( #145 ) ) ;
#64 = DIRECTION ( 'NONE',  ( 0.0000000000000000000, -1.000000000000000000, 0.0000000000000000000 ) ) ;
#65 = DIRECTION ( 'NONE',  ( 0.0000000000000000000, 1.000000000000000000, 0.0000000000000000000 ) ) ;
#66 = AXIS2_PLACEMENT_3D ( 'NONE', #54, #219, #61 ) ;
#67 = DIRECTION ( 'NONE',  ( -0.0000000000000000000, 0.0000000000000000000, 1.000000000000000000 ) ) ;
#68 = VERTEX_POINT ( 'NONE', #46 ) ;
#69 = LINE ( 'NONE', #102, #177 ) ;
#70 = APPROVAL_STATUS ( 'not_yet_approved' ) ;
#71 = ORIENTED_EDGE ( 'NONE', *, *, #188, .F. ) ;
#72 = DATE_TIME_ROLE ( 'classification_date' ) ;
#73 = DIRECTION ( 'NONE',  ( 0.0000000000000000000, -0.0000000000000000000, -1.000000000000000000 ) ) ;
#74 = VECTOR ( 'NONE', #33, 1000.000000000000000 ) ;
#75 = AXIS2_PLACEMENT_3D ( 'NONE', #93, #65, #128 ) ;
#76 = PLANE ( 'NONE',  #75 ) ;
#77 = ORIENTED_EDGE ( 'NONE', *, *, #12, .T. ) ;
#78 = PERSON ( 'UNSPECIFIED', 'UNSPECIFIED', 'UNSPECIFIED', ('UNSPECIFIED'), ('UNSPECIFIED'), ('UNSPECIFIED') ) ;
#79 = CARTESIAN_POINT ( 'NONE',  ( -17.50000000000000000, 17.50000000000000000, 0.5000000000000000000 ) ) ;
#80 = ORIENTED_EDGE ( 'NONE', *, *, #96, .T. ) ;
#81 = VERTEX_POINT ( 'NONE', #51 ) ;
#82 = LOCAL_TIME ( 13, 56, 44.00000000000000000, #22 ) ;
#83 = APPLICATION_CONTEXT ( 'configuration controlled 3d designs of mechanical parts and assemblies' ) ;
#84 = ORIENTED_EDGE ( 'NONE', *, *, #200, .F. ) ;
#85 = APPROVAL ( #178, 'UNSPECIFIED' ) ;
#86 = VERTEX_POINT ( 'NONE', #230 ) ;
#87 = CALENDAR_DATE ( 2017, 10, 4 ) ;
#88 =( LENGTH_UNIT ( ) NAMED_UNIT ( * ) SI_UNIT ( .MILLI., .METRE. ) );
#89 = MANIFOLD_SOLID_BREP ( 'Boss-Extrude1', #8 ) ;
#90 = ORIENTED_EDGE ( 'NONE', *, *, #107, .T. ) ;
#91 = VECTOR ( 'NONE', #47, 1000.000000000000000 ) ;
#92 = PLANE ( 'NONE',  #161 ) ;
#93 = CARTESIAN_POINT ( 'NONE',  ( -17.50000000000000000, -17.50000000000000000, 0.5000000000000000000 ) ) ;
#94 = PRODUCT_RELATED_PRODUCT_CATEGORY ( 'detail', '', ( #130 ) ) ;
#95 = ADVANCED_BREP_SHAPE_REPRESENTATION ( 'Web Model 46609_45324', ( #89, #233 ), #127 ) ;
#96 = EDGE_CURVE ( 'NONE', #68, #81, #62, .T. ) ;
#97 = DATE_AND_TIME ( #165, #17 ) ;
#98 = DIRECTION ( 'NONE',  ( 0.0000000000000000000, 0.0000000000000000000, 1.000000000000000000 ) ) ;
#99 = PERSON_AND_ORGANIZATION_ROLE ( 'design_supplier' ) ;
#100 = DIRECTION ( 'NONE',  ( -0.0000000000000000000, -0.0000000000000000000, -1.000000000000000000 ) ) ;
#101 = MECHANICAL_CONTEXT ( 'NONE', #83, 'mechanical' ) ;
#102 = CARTESIAN_POINT ( 'NONE',  ( -17.50000000000000000, 17.50000000000000000, 0.5000000000000000000 ) ) ;
#103 = APPROVAL_DATE_TIME ( #164, #237 ) ;
#104 = DATE_AND_TIME ( #25, #20 ) ;
#105 = PERSON_AND_ORGANIZATION ( #78, #21 ) ;
#106 = LOCAL_TIME ( 13, 56, 44.00000000000000000, #180 ) ;
#107 = EDGE_CURVE ( 'NONE', #44, #68, #131, .T. ) ;
#108 = ORIENTED_EDGE ( 'NONE', *, *, #156, .F. ) ;
#109 = CARTESIAN_POINT ( 'NONE',  ( 17.50000000000000000, 17.50000000000000000, 0.5000000000000000000 ) ) ;
#110 = CARTESIAN_POINT ( 'NONE',  ( -17.50000000000000000, -17.50000000000000000, -0.5000000000000000000 ) ) ;
#111 = CARTESIAN_POINT ( 'NONE',  ( -17.50000000000000000, -17.50000000000000000, 0.5000000000000000000 ) ) ;
#112 = CC_DESIGN_APPROVAL ( #85, ( #145 ) ) ;
#113 = DIRECTION ( 'NONE',  ( -0.0000000000000000000, -0.0000000000000000000, -1.000000000000000000 ) ) ;
#114 = EDGE_CURVE ( 'NONE', #44, #175, #69, .T. ) ;
#115 = APPROVAL_DATE_TIME ( #137, #167 ) ;
#116 = CARTESIAN_POINT ( 'NONE',  ( 17.50000000000000000, -17.50000000000000000, 0.5000000000000000000 ) ) ;
#117 = CARTESIAN_POINT ( 'NONE',  ( 17.50000000000000000, 17.50000000000000000, 0.5000000000000000000 ) ) ;
#118 = ADVANCED_FACE ( 'NONE', ( #39 ), #52, .F. ) ;
#119 = APPROVAL_PERSON_ORGANIZATION ( #105, #237, #121 ) ;
#120 = EDGE_CURVE ( 'NONE', #175, #81, #23, .T. ) ;
#121 = APPROVAL_ROLE ( '' ) ;
#122 = LINE ( 'NONE', #24, #91 ) ;
#123 = ADVANCED_FACE ( 'NONE', ( #53 ), #140, .F. ) ;
#124 = LINE ( 'NONE', #179, #141 ) ;
#125 = SECURITY_CLASSIFICATION_LEVEL ( 'unclassified' ) ;
#126 = VECTOR ( 'NONE', #213, 1000.000000000000000 ) ;
#127 =( GEOMETRIC_REPRESENTATION_CONTEXT ( 3 ) GLOBAL_UNCERTAINTY_ASSIGNED_CONTEXT ( ( #36 ) ) GLOBAL_UNIT_ASSIGNED_CONTEXT ( ( #88, #155, #169 ) ) REPRESENTATION_CONTEXT ( 'NONE', 'WORKASPACE' ) );
#128 = DIRECTION ( 'NONE',  ( 0.0000000000000000000, -0.0000000000000000000, 1.000000000000000000 ) ) ;
#129 = CARTESIAN_POINT ( 'NONE',  ( -17.50000000000000000, 17.50000000000000000, 0.5000000000000000000 ) ) ;
#130 = PRODUCT ( 'Web Model 46609_45324', 'Web Model 46609_45324', '', ( #101 ) ) ;
#131 = LINE ( 'NONE', #129, #170 ) ;
#132 = CARTESIAN_POINT ( 'NONE',  ( -17.50000000000000000, 17.50000000000000000, -0.5000000000000000000 ) ) ;
#133 = COORDINATED_UNIVERSAL_TIME_OFFSET ( 5, 0, .BEHIND. ) ;
#134 = CC_DESIGN_APPROVAL ( #237, ( #173 ) ) ;
#135 = DIRECTION ( 'NONE',  ( 1.000000000000000000, 0.0000000000000000000, 0.0000000000000000000 ) ) ;
#136 = ORIENTED_EDGE ( 'NONE', *, *, #202, .F. ) ;
#137 = DATE_AND_TIME ( #3, #168 ) ;
#138 = VERTEX_POINT ( 'NONE', #116 ) ;
#139 = PERSON_AND_ORGANIZATION_ROLE ( 'design_owner' ) ;
#140 = PLANE ( 'NONE',  #229 ) ;
#141 = VECTOR ( 'NONE', #201, 1000.000000000000000 ) ;
#142 = FACE_OUTER_BOUND ( 'NONE', #209, .T. ) ;
#143 = CARTESIAN_POINT ( 'NONE',  ( -17.50000000000000000, 17.50000000000000000, 0.5000000000000000000 ) ) ;
#144 = ADVANCED_FACE ( 'NONE', ( #187 ), #92, .F. ) ;
#145 = PRODUCT_DEFINITION_FORMATION_WITH_SPECIFIED_SOURCE ( 'ANY', '', #130, .NOT_KNOWN. ) ;
#146 = PERSON_AND_ORGANIZATION ( #78, #21 ) ;
#147 = LINE ( 'NONE', #117, #74 ) ;
#148 = ADVANCED_FACE ( 'NONE', ( #142 ), #14, .T. ) ;
#149 = DESIGN_CONTEXT ( 'detailed design', #198, 'design' ) ;
#150 = PERSON_AND_ORGANIZATION ( #78, #21 ) ;
#151 = ORIENTED_EDGE ( 'NONE', *, *, #172, .T. ) ;
#152 = LINE ( 'NONE', #216, #225 ) ;
#153 = CARTESIAN_POINT ( 'NONE',  ( 0.0000000000000000000, 0.0000000000000000000, 0.0000000000000000000 ) ) ;
#154 = DIRECTION ( 'NONE',  ( 1.000000000000000000, 0.0000000000000000000, -0.0000000000000000000 ) ) ;
#155 =( NAMED_UNIT ( * ) PLANE_ANGLE_UNIT ( ) SI_UNIT ( $, .RADIAN. ) );
#156 = EDGE_CURVE ( 'NONE', #5, #44, #122, .T. ) ;
#157 = ORIENTED_EDGE ( 'NONE', *, *, #156, .T. ) ;
#158 = CALENDAR_DATE ( 2017, 10, 4 ) ;
#159 = SECURITY_CLASSIFICATION ( '', '', #125 ) ;
#160 = CARTESIAN_POINT ( 'NONE',  ( -17.50000000000000000, -17.50000000000000000, 0.5000000000000000000 ) ) ;
#161 = AXIS2_PLACEMENT_3D ( 'NONE', #79, #64, #73 ) ;
#162 = PLANE ( 'NONE',  #221 ) ;
#163 = ORIENTED_EDGE ( 'NONE', *, *, #107, .F. ) ;
#164 = DATE_AND_TIME ( #158, #82 ) ;
#165 = CALENDAR_DATE ( 2017, 10, 4 ) ;
#166 = CARTESIAN_POINT ( 'NONE',  ( 17.50000000000000000, 17.50000000000000000, 0.5000000000000000000 ) ) ;
#167 = APPROVAL ( #210, 'UNSPECIFIED' ) ;
#168 = LOCAL_TIME ( 13, 56, 44.00000000000000000, #133 ) ;
#169 =( NAMED_UNIT ( * ) SI_UNIT ( $, .STERADIAN. ) SOLID_ANGLE_UNIT ( ) );
#170 = VECTOR ( 'NONE', #16, 1000.000000000000000 ) ;
#171 = EDGE_CURVE ( 'NONE', #81, #86, #214, .T. ) ;
#172 = EDGE_CURVE ( 'NONE', #5, #183, #40, .T. ) ;
#173 = PRODUCT_DEFINITION ( 'UNKNOWN', '', #145, #149 ) ;
#174 = PRODUCT_DEFINITION_SHAPE ( 'NONE', 'NONE',  #173 ) ;
#175 = VERTEX_POINT ( 'NONE', #111 ) ;
#176 = SHAPE_DEFINITION_REPRESENTATION ( #174, #95 ) ;
#177 = VECTOR ( 'NONE', #37, 1000.000000000000000 ) ;
#178 = APPROVAL_STATUS ( 'not_yet_approved' ) ;
#179 = CARTESIAN_POINT ( 'NONE',  ( -17.50000000000000000, 17.50000000000000000, -0.5000000000000000000 ) ) ;
#180 = COORDINATED_UNIVERSAL_TIME_OFFSET ( 5, 0, .BEHIND. ) ;
#181 = DIRECTION ( 'NONE',  ( 1.000000000000000000, 0.0000000000000000000, 0.0000000000000000000 ) ) ;
#182 = ADVANCED_FACE ( 'NONE', ( #42 ), #76, .F. ) ;
#183 = VERTEX_POINT ( 'NONE', #41 ) ;
#184 = PERSON_AND_ORGANIZATION ( #78, #21 ) ;
#185 = ORIENTED_EDGE ( 'NONE', *, *, #114, .F. ) ;
#186 = CARTESIAN_POINT ( 'NONE',  ( 17.50000000000000000, 17.50000000000000000, 0.5000000000000000000 ) ) ;
#187 = FACE_OUTER_BOUND ( 'NONE', #45, .T. ) ;
#188 = EDGE_CURVE ( 'NONE', #138, #5, #147, .T. ) ;
#189 = DATE_TIME_ROLE ( 'creation_date' ) ;
#190 = VECTOR ( 'NONE', #181, 1000.000000000000000 ) ;
#191 = DIRECTION ( 'NONE',  ( 0.0000000000000000000, -1.000000000000000000, 0.0000000000000000000 ) ) ;
#192 = ORIENTED_EDGE ( 'NONE', *, *, #196, .F. ) ;
#193 = ORIENTED_EDGE ( 'NONE', *, *, #120, .F. ) ;
#194 = ORIENTED_EDGE ( 'NONE', *, *, #200, .T. ) ;
#195 = PERSON_AND_ORGANIZATION ( #78, #21 ) ;
#196 = EDGE_CURVE ( 'NONE', #138, #86, #152, .T. ) ;
#197 = ORIENTED_EDGE ( 'NONE', *, *, #120, .T. ) ;
#198 = APPLICATION_CONTEXT ( 'configuration controlled 3d designs of mechanical parts and assemblies' ) ;
#199 = DIRECTION ( 'NONE',  ( 0.0000000000000000000, 0.0000000000000000000, 1.000000000000000000 ) ) ;
#200 = EDGE_CURVE ( 'NONE', #183, #68, #124, .T. ) ;
#201 = DIRECTION ( 'NONE',  ( -1.000000000000000000, -0.0000000000000000000, -0.0000000000000000000 ) ) ;
#202 = EDGE_CURVE ( 'NONE', #175, #138, #34, .T. ) ;
#203 = CC_DESIGN_DATE_AND_TIME_ASSIGNMENT ( #97, #189, ( #173 ) ) ;
#204 = CC_DESIGN_PERSON_AND_ORGANIZATION_ASSIGNMENT ( #15, #212, ( #159 ) ) ;
#205 = ORIENTED_EDGE ( 'NONE', *, *, #12, .F. ) ;
#206 = EDGE_LOOP ( 'NONE', ( #80, #193, #185, #90 ) ) ;
#207 = CC_DESIGN_APPROVAL ( #167, ( #159 ) ) ;
#208 = PERSON_AND_ORGANIZATION_ROLE ( 'creator' ) ;
#209 = EDGE_LOOP ( 'NONE', ( #218, #157, #60, #58 ) ) ;
#210 = APPROVAL_STATUS ( 'not_yet_approved' ) ;
#211 = CC_DESIGN_PERSON_AND_ORGANIZATION_ASSIGNMENT ( #43, #139, ( #130 ) ) ;
#212 = PERSON_AND_ORGANIZATION_ROLE ( 'classification_officer' ) ;
#213 = DIRECTION ( 'NONE',  ( -0.0000000000000000000, 1.000000000000000000, -0.0000000000000000000 ) ) ;
#214 = LINE ( 'NONE', #110, #190 ) ;
#215 = EDGE_LOOP ( 'NONE', ( #1, #192, #136, #197 ) ) ;
#216 = CARTESIAN_POINT ( 'NONE',  ( 17.50000000000000000, -17.50000000000000000, 0.5000000000000000000 ) ) ;
#217 = AXIS2_PLACEMENT_3D ( 'NONE', #143, #154, #26 ) ;
#218 = ORIENTED_EDGE ( 'NONE', *, *, #188, .T. ) ;
#219 = DIRECTION ( 'NONE',  ( -0.0000000000000000000, 0.0000000000000000000, 1.000000000000000000 ) ) ;
#220 = CARTESIAN_POINT ( 'NONE',  ( 17.50000000000000000, 17.50000000000000000, -0.5000000000000000000 ) ) ;
#221 = AXIS2_PLACEMENT_3D ( 'NONE', #49, #67, #38 ) ;
#222 = DIRECTION ( 'NONE',  ( -1.000000000000000000, 0.0000000000000000000, 0.0000000000000000000 ) ) ;
#223 = COORDINATED_UNIVERSAL_TIME_OFFSET ( 5, 0, .BEHIND. ) ;
#224 = CC_DESIGN_DATE_AND_TIME_ASSIGNMENT ( #104, #72, ( #159 ) ) ;
#225 = VECTOR ( 'NONE', #100, 1000.000000000000000 ) ;
#226 = APPLICATION_PROTOCOL_DEFINITION ( 'international standard', 'config_control_design', 1994, #198 ) ;
#227 = CARTESIAN_POINT ( 'NONE',  ( -17.50000000000000000, 17.50000000000000000, 0.5000000000000000000 ) ) ;
#228 = CC_DESIGN_PERSON_AND_ORGANIZATION_ASSIGNMENT ( #184, #208, ( #145 ) ) ;
#229 = AXIS2_PLACEMENT_3D ( 'NONE', #186, #222, #199 ) ;
#230 = CARTESIAN_POINT ( 'NONE',  ( 17.50000000000000000, -17.50000000000000000, -0.5000000000000000000 ) ) ;
#231 = APPROVAL_ROLE ( '' ) ;
#232 = CARTESIAN_POINT ( 'NONE',  ( -17.50000000000000000, -17.50000000000000000, 0.5000000000000000000 ) ) ;
#233 = AXIS2_PLACEMENT_3D ( 'NONE', #153, #98, #135 ) ;
#234 = VECTOR ( 'NONE', #32, 1000.000000000000000 ) ;
#235 = EDGE_LOOP ( 'NONE', ( #77, #35, #71, #236 ) ) ;
#236 = ORIENTED_EDGE ( 'NONE', *, *, #196, .T. ) ;
#237 = APPROVAL ( #70, 'UNSPECIFIED' ) ;
ENDSEC;
END-ISO-10303-21;
