ISO-10303-21;
HEADER;
FILE_DESCRIPTION (( 'STEP AP203' ),
    '1' );
FILE_NAME ('Web Model 22848_22855.step',
    '2022-06-22T12:59:18',
    ( 'WC' ),
    ( 'Windows Central' ),
    'SwSTEP 2.0',
    'SolidWorks 2021',
    '' );
FILE_SCHEMA (( 'CONFIG_CONTROL_DESIGN' ));
ENDSEC;

DATA;
#1 = PERSON ( 'UNSPECIFIED', 'UNSPECIFIED', 'UNSPECIFIED', ('UNSPECIFIED'), ('UNSPECIFIED'), ('UNSPECIFIED') ) ;
#2 = DIRECTION ( 'NONE',  ( 1.000000000000000000, 0.000000000000000000, -0.000000000000000000 ) ) ;
#3 = FACE_OUTER_BOUND ( 'NONE', #123, .T. ) ;
#4 = DIRECTION ( 'NONE',  ( -0.000000000000000000, -0.000000000000000000, -1.000000000000000000 ) ) ;
#5 = EDGE_CURVE ( 'NONE', #115, #173, #132, .T. ) ;
#6 = FACE_OUTER_BOUND ( 'NONE', #156, .T. ) ;
#7 = DIRECTION ( 'NONE',  ( 1.000000000000000000, 0.000000000000000000, 0.000000000000000000 ) ) ;
#8 = CIRCLE ( 'NONE', #24, 25.00000000000000000 ) ;
#9 = APPROVAL_STATUS ( 'not_yet_approved' ) ;
#10 = CALENDAR_DATE ( 2022, 22, 6 ) ;
#11 = ORIENTED_EDGE ( 'NONE', *, *, #30, .T. ) ;
#12 = AXIS2_PLACEMENT_3D ( 'NONE', #28, #52, #23 ) ;
#13 = CALENDAR_DATE ( 2022, 22, 6 ) ;
#14 = APPROVAL ( #109, 'UNSPECIFIED' ) ;
#15 = CARTESIAN_POINT ( 'NONE',  ( 25.00000000000000000, 3.061616997868383043E-15, 1.100000000000000089 ) ) ;
#16 = DIRECTION ( 'NONE',  ( 0.000000000000000000, 0.000000000000000000, 1.000000000000000000 ) ) ;
#17 = PRODUCT_DEFINITION_SHAPE ( 'NONE', 'NONE',  #110 ) ;
#18 = DIRECTION ( 'NONE',  ( -1.000000000000000000, 0.000000000000000000, 0.000000000000000000 ) ) ;
#19 = APPLICATION_CONTEXT ( 'configuration controlled 3d designs of mechanical parts and assemblies' ) ;
#20 = CALENDAR_DATE ( 2022, 22, 6 ) ;
#21 = DATE_AND_TIME ( #13, #59 ) ;
#22 = PRODUCT_DEFINITION_FORMATION_WITH_SPECIFIED_SOURCE ( 'ANY', '', #82, .NOT_KNOWN. ) ;
#23 = DIRECTION ( 'NONE',  ( 1.000000000000000000, 0.000000000000000000, 0.000000000000000000 ) ) ;
#24 = AXIS2_PLACEMENT_3D ( 'NONE', #146, #147, #26 ) ;
#25 = EDGE_CURVE ( 'NONE', #60, #173, #49, .T. ) ;
#26 = DIRECTION ( 'NONE',  ( 1.000000000000000000, 0.000000000000000000, 0.000000000000000000 ) ) ;
#27 = CARTESIAN_POINT ( 'NONE',  ( -25.00000000000000000, 0.000000000000000000, 1.100000000000000089 ) ) ;
#28 = CARTESIAN_POINT ( 'NONE',  ( 0.000000000000000000, 0.000000000000000000, 0.000000000000000000 ) ) ;
#29 = AXIS2_PLACEMENT_3D ( 'NONE', #48, #68, #150 ) ;
#30 = EDGE_CURVE ( 'NONE', #60, #84, #159, .T. ) ;
#31 = PERSON_AND_ORGANIZATION_ROLE ( 'classification_officer' ) ;
#32 = APPROVAL_DATE_TIME ( #43, #14 ) ;
#33 = AXIS2_PLACEMENT_3D ( 'NONE', #136, #16, #163 ) ;
#34 = CARTESIAN_POINT ( 'NONE',  ( 0.000000000000000000, 0.000000000000000000, 1.100000000000000089 ) ) ;
#35 = CARTESIAN_POINT ( 'NONE',  ( 25.00000000000000000, 3.061616997868383043E-15, 1.100000000000000089 ) ) ;
#36 = DIRECTION ( 'NONE',  ( 0.000000000000000000, 0.000000000000000000, 1.000000000000000000 ) ) ;
#37 = APPROVAL_PERSON_ORGANIZATION ( #153, #44, #100 ) ;
#38 = DIRECTION ( 'NONE',  ( -0.000000000000000000, -0.000000000000000000, -1.000000000000000000 ) ) ;
#39 = CC_DESIGN_PERSON_AND_ORGANIZATION_ASSIGNMENT ( #130, #155, ( #82 ) ) ;
#40 = DATE_AND_TIME ( #101, #129 ) ;
#41 = COORDINATED_UNIVERSAL_TIME_OFFSET ( 5, 0, .BEHIND. ) ;
#42 = SECURITY_CLASSIFICATION ( '', '', #73 ) ;
#43 = DATE_AND_TIME ( #10, #65 ) ;
#44 = APPROVAL ( #9, 'UNSPECIFIED' ) ;
#45 = PERSON_AND_ORGANIZATION_ROLE ( 'design_supplier' ) ;
#46 = CLOSED_SHELL ( 'NONE', ( #78, #175, #139, #98 ) ) ;
#47 = PLANE ( 'NONE',  #125 ) ;
#48 = CARTESIAN_POINT ( 'NONE',  ( 0.000000000000000000, 0.000000000000000000, 1.100000000000000089 ) ) ;
#49 = LINE ( 'NONE', #27, #144 ) ;
#50 = CARTESIAN_POINT ( 'NONE',  ( 25.00000000000000000, 3.061616997868383043E-15, 0.000000000000000000 ) ) ;
#51 = CC_DESIGN_DATE_AND_TIME_ASSIGNMENT ( #21, #142, ( #42 ) ) ;
#52 = DIRECTION ( 'NONE',  ( 0.000000000000000000, 0.000000000000000000, 1.000000000000000000 ) ) ;
#53 = AXIS2_PLACEMENT_3D ( 'NONE', #106, #36, #7 ) ;
#54 =( GEOMETRIC_REPRESENTATION_CONTEXT ( 3 ) GLOBAL_UNCERTAINTY_ASSIGNED_CONTEXT ( ( #134 ) ) GLOBAL_UNIT_ASSIGNED_CONTEXT ( ( #152, #108, #107 ) ) REPRESENTATION_CONTEXT ( 'NONE', 'WORKASPACE' ) );
#55 = APPLICATION_PROTOCOL_DEFINITION ( 'international standard', 'config_control_design', 1994, #19 ) ;
#56 = SHAPE_DEFINITION_REPRESENTATION ( #17, #62 ) ;
#57 = EDGE_LOOP ( 'NONE', ( #141, #127, #126, #87 ) ) ;
#58 = PERSON_AND_ORGANIZATION_ROLE ( 'creator' ) ;
#59 = LOCAL_TIME ( 8, 59, 18.00000000000000000, #41 ) ;
#60 = VERTEX_POINT ( 'NONE', #94 ) ;
#61 = APPROVAL_ROLE ( '' ) ;
#62 = ADVANCED_BREP_SHAPE_REPRESENTATION ( 'Web Model 22848_22855', ( #161, #12 ), #54 ) ;
#63 = EDGE_CURVE ( 'NONE', #84, #60, #113, .T. ) ;
#64 = DIRECTION ( 'NONE',  ( 0.000000000000000000, 0.000000000000000000, 1.000000000000000000 ) ) ;
#65 = LOCAL_TIME ( 8, 59, 18.00000000000000000, #96 ) ;
#66 = APPLICATION_CONTEXT ( 'configuration controlled 3d designs of mechanical parts and assemblies' ) ;
#67 = ORIENTED_EDGE ( 'NONE', *, *, #25, .T. ) ;
#68 = DIRECTION ( 'NONE',  ( 0.000000000000000000, 0.000000000000000000, 1.000000000000000000 ) ) ;
#69 = AXIS2_PLACEMENT_3D ( 'NONE', #93, #149, #83 ) ;
#70 = CC_DESIGN_PERSON_AND_ORGANIZATION_ASSIGNMENT ( #85, #99, ( #110 ) ) ;
#71 = FACE_OUTER_BOUND ( 'NONE', #104, .T. ) ;
#72 = PERSON_AND_ORGANIZATION ( #1, #135 ) ;
#73 = SECURITY_CLASSIFICATION_LEVEL ( 'unclassified' ) ;
#74 = PERSON_AND_ORGANIZATION ( #1, #135 ) ;
#75 = ORIENTED_EDGE ( 'NONE', *, *, #80, .F. ) ;
#76 = COORDINATED_UNIVERSAL_TIME_OFFSET ( 5, 0, .BEHIND. ) ;
#77 = COORDINATED_UNIVERSAL_TIME_OFFSET ( 5, 0, .BEHIND. ) ;
#78 = ADVANCED_FACE ( 'NONE', ( #119 ), #164, .T. ) ;
#79 = DIRECTION ( 'NONE',  ( -0.000000000000000000, -0.000000000000000000, -1.000000000000000000 ) ) ;
#80 = EDGE_CURVE ( 'NONE', #173, #115, #8, .T. ) ;
#81 = PLANE ( 'NONE',  #29 ) ;
#82 = PRODUCT ( 'Web Model 22848_22855', 'Web Model 22848_22855', '', ( #148 ) ) ;
#83 = DIRECTION ( 'NONE',  ( 1.000000000000000000, 0.000000000000000000, 0.000000000000000000 ) ) ;
#84 = VERTEX_POINT ( 'NONE', #15 ) ;
#85 = PERSON_AND_ORGANIZATION ( #1, #135 ) ;
#86 = APPROVAL_ROLE ( '' ) ;
#87 = ORIENTED_EDGE ( 'NONE', *, *, #25, .F. ) ;
#88 = CC_DESIGN_PERSON_AND_ORGANIZATION_ASSIGNMENT ( #91, #31, ( #42 ) ) ;
#89 = PERSON_AND_ORGANIZATION ( #1, #135 ) ;
#90 = LOCAL_TIME ( 8, 59, 18.00000000000000000, #76 ) ;
#91 = PERSON_AND_ORGANIZATION ( #1, #135 ) ;
#92 = APPLICATION_PROTOCOL_DEFINITION ( 'international standard', 'config_control_design', 1994, #66 ) ;
#93 = CARTESIAN_POINT ( 'NONE',  ( 0.000000000000000000, 0.000000000000000000, 1.100000000000000089 ) ) ;
#94 = CARTESIAN_POINT ( 'NONE',  ( -25.00000000000000000, 0.000000000000000000, 1.100000000000000089 ) ) ;
#95 = LOCAL_TIME ( 8, 59, 18.00000000000000000, #111 ) ;
#96 = COORDINATED_UNIVERSAL_TIME_OFFSET ( 5, 0, .BEHIND. ) ;
#97 = ORIENTED_EDGE ( 'NONE', *, *, #30, .F. ) ;
#98 = ADVANCED_FACE ( 'NONE', ( #3 ), #47, .F. ) ;
#99 = PERSON_AND_ORGANIZATION_ROLE ( 'creator' ) ;
#100 = APPROVAL_ROLE ( '' ) ;
#101 = CALENDAR_DATE ( 2022, 22, 6 ) ;
#102 = AXIS2_PLACEMENT_3D ( 'NONE', #34, #79, #131 ) ;
#103 = CARTESIAN_POINT ( 'NONE',  ( 0.000000000000000000, 0.000000000000000000, 0.000000000000000000 ) ) ;
#104 = EDGE_LOOP ( 'NONE', ( #11, #154 ) ) ;
#105 = CARTESIAN_POINT ( 'NONE',  ( -25.00000000000000000, 0.000000000000000000, 0.000000000000000000 ) ) ;
#106 = CARTESIAN_POINT ( 'NONE',  ( 0.000000000000000000, 0.000000000000000000, 0.000000000000000000 ) ) ;
#107 =( NAMED_UNIT ( * ) SI_UNIT ( $, .STERADIAN. ) SOLID_ANGLE_UNIT ( ) );
#108 =( NAMED_UNIT ( * ) PLANE_ANGLE_UNIT ( ) SI_UNIT ( $, .RADIAN. ) );
#109 = APPROVAL_STATUS ( 'not_yet_approved' ) ;
#110 = PRODUCT_DEFINITION ( 'UNKNOWN', '', #22, #133 ) ;
#111 = COORDINATED_UNIVERSAL_TIME_OFFSET ( 5, 0, .BEHIND. ) ;
#112 = ORIENTED_EDGE ( 'NONE', *, *, #80, .T. ) ;
#113 = CIRCLE ( 'NONE', #33, 25.00000000000000000 ) ;
#114 = APPROVAL_PERSON_ORGANIZATION ( #89, #124, #86 ) ;
#115 = VERTEX_POINT ( 'NONE', #50 ) ;
#116 = DATE_AND_TIME ( #20, #95 ) ;
#117 = CC_DESIGN_PERSON_AND_ORGANIZATION_ASSIGNMENT ( #74, #45, ( #22 ) ) ;
#118 = CC_DESIGN_APPROVAL ( #124, ( #22 ) ) ;
#119 = FACE_OUTER_BOUND ( 'NONE', #57, .T. ) ;
#120 = ORIENTED_EDGE ( 'NONE', *, *, #151, .F. ) ;
#121 = DIRECTION ( 'NONE',  ( -0.000000000000000000, -0.000000000000000000, -1.000000000000000000 ) ) ;
#122 = APPROVAL_PERSON_ORGANIZATION ( #170, #14, #61 ) ;
#123 = EDGE_LOOP ( 'NONE', ( #75, #167 ) ) ;
#124 = APPROVAL ( #169, 'UNSPECIFIED' ) ;
#125 = AXIS2_PLACEMENT_3D ( 'NONE', #103, #64, #2 ) ;
#126 = ORIENTED_EDGE ( 'NONE', *, *, #5, .T. ) ;
#127 = ORIENTED_EDGE ( 'NONE', *, *, #151, .T. ) ;
#128 = APPROVAL_DATE_TIME ( #174, #44 ) ;
#129 = LOCAL_TIME ( 8, 59, 18.00000000000000000, #77 ) ;
#130 = PERSON_AND_ORGANIZATION ( #1, #135 ) ;
#131 = DIRECTION ( 'NONE',  ( -1.000000000000000000, 0.000000000000000000, 0.000000000000000000 ) ) ;
#132 = CIRCLE ( 'NONE', #53, 25.00000000000000000 ) ;
#133 = DESIGN_CONTEXT ( 'detailed design', #19, 'design' ) ;
#134 = UNCERTAINTY_MEASURE_WITH_UNIT (LENGTH_MEASURE( 1.000000000000000082E-05 ), #152, 'distance_accuracy_value', 'NONE');
#135 = ORGANIZATION ( 'UNSPECIFIED', 'UNSPECIFIED', '' ) ;
#136 = CARTESIAN_POINT ( 'NONE',  ( 0.000000000000000000, 0.000000000000000000, 1.100000000000000089 ) ) ;
#137 = CC_DESIGN_PERSON_AND_ORGANIZATION_ASSIGNMENT ( #72, #58, ( #22 ) ) ;
#138 = CARTESIAN_POINT ( 'NONE',  ( 0.000000000000000000, 0.000000000000000000, 1.100000000000000089 ) ) ;
#139 = ADVANCED_FACE ( 'NONE', ( #71 ), #81, .T. ) ;
#140 = CALENDAR_DATE ( 2022, 22, 6 ) ;
#141 = ORIENTED_EDGE ( 'NONE', *, *, #63, .F. ) ;
#142 = DATE_TIME_ROLE ( 'classification_date' ) ;
#143 = AXIS2_PLACEMENT_3D ( 'NONE', #138, #38, #18 ) ;
#144 = VECTOR ( 'NONE', #4, 1000.000000000000000 ) ;
#145 = CC_DESIGN_APPROVAL ( #44, ( #42 ) ) ;
#146 = CARTESIAN_POINT ( 'NONE',  ( 0.000000000000000000, 0.000000000000000000, 0.000000000000000000 ) ) ;
#147 = DIRECTION ( 'NONE',  ( 0.000000000000000000, 0.000000000000000000, 1.000000000000000000 ) ) ;
#148 = MECHANICAL_CONTEXT ( 'NONE', #66, 'mechanical' ) ;
#149 = DIRECTION ( 'NONE',  ( 0.000000000000000000, 0.000000000000000000, 1.000000000000000000 ) ) ;
#150 = DIRECTION ( 'NONE',  ( 1.000000000000000000, 0.000000000000000000, -0.000000000000000000 ) ) ;
#151 = EDGE_CURVE ( 'NONE', #84, #115, #165, .T. ) ;
#152 =( LENGTH_UNIT ( ) NAMED_UNIT ( * ) SI_UNIT ( .MILLI., .METRE. ) );
#153 = PERSON_AND_ORGANIZATION ( #1, #135 ) ;
#154 = ORIENTED_EDGE ( 'NONE', *, *, #63, .T. ) ;
#155 = PERSON_AND_ORGANIZATION_ROLE ( 'design_owner' ) ;
#156 = EDGE_LOOP ( 'NONE', ( #120, #97, #67, #112 ) ) ;
#157 = DATE_TIME_ROLE ( 'creation_date' ) ;
#158 = CC_DESIGN_DATE_AND_TIME_ASSIGNMENT ( #40, #157, ( #110 ) ) ;
#159 = CIRCLE ( 'NONE', #69, 25.00000000000000000 ) ;
#160 = APPROVAL_DATE_TIME ( #116, #124 ) ;
#161 = MANIFOLD_SOLID_BREP ( 'Boss-Extrude1', #46 ) ;
#162 = CC_DESIGN_SECURITY_CLASSIFICATION ( #42, ( #22 ) ) ;
#163 = DIRECTION ( 'NONE',  ( 1.000000000000000000, 0.000000000000000000, 0.000000000000000000 ) ) ;
#164 = CYLINDRICAL_SURFACE ( 'NONE', #102, 25.00000000000000000 ) ;
#165 = LINE ( 'NONE', #35, #171 ) ;
#166 = CYLINDRICAL_SURFACE ( 'NONE', #143, 25.00000000000000000 ) ;
#167 = ORIENTED_EDGE ( 'NONE', *, *, #5, .F. ) ;
#168 = CC_DESIGN_APPROVAL ( #14, ( #110 ) ) ;
#169 = APPROVAL_STATUS ( 'not_yet_approved' ) ;
#170 = PERSON_AND_ORGANIZATION ( #1, #135 ) ;
#171 = VECTOR ( 'NONE', #121, 1000.000000000000000 ) ;
#172 = PRODUCT_RELATED_PRODUCT_CATEGORY ( 'detail', '', ( #82 ) ) ;
#173 = VERTEX_POINT ( 'NONE', #105 ) ;
#174 = DATE_AND_TIME ( #140, #90 ) ;
#175 = ADVANCED_FACE ( 'NONE', ( #6 ), #166, .T. ) ;
ENDSEC;
END-ISO-10303-21;
