ISO-10303-21;
HEADER;
FILE_DESCRIPTION (( 'STEP AP203' ),
    '1' );
FILE_NAME ('Web Model 14963_18341.step',
    '2021-06-28T15:37:11',
    ( '' ),
    ( '' ),
    'SwSTEP 2.0',
    'SolidWorks 2018',
    '' );
FILE_SCHEMA (( 'CONFIG_CONTROL_DESIGN' ));
ENDSEC;

DATA;
#1 = PRODUCT_DEFINITION_SHAPE ( 'NONE', 'NONE',  #121 ) ;
#2 = DATE_AND_TIME ( #148, #60 ) ;
#3 = CYLINDRICAL_SURFACE ( 'NONE', #94, 12.50000000000000000 ) ;
#4 = APPROVAL_PERSON_ORGANIZATION ( #19, #103, #66 ) ;
#5 = PERSON_AND_ORGANIZATION_ROLE ( 'creator' ) ;
#6 = CARTESIAN_POINT ( 'NONE',  ( -1.500000000000000000, 0.000000000000000000, 0.000000000000000000 ) ) ;
#7 = CC_DESIGN_SECURITY_CLASSIFICATION ( #175, ( #57 ) ) ;
#8 = CARTESIAN_POINT ( 'NONE',  ( 1.500000000000000000, 0.000000000000000000, 12.50000000000000000 ) ) ;
#9 = ORIENTED_EDGE ( 'NONE', *, *, #167, .T. ) ;
#10 = DIRECTION ( 'NONE',  ( 1.000000000000000000, 0.000000000000000000, 0.000000000000000000 ) ) ;
#11 = DESIGN_CONTEXT ( 'detailed design', #39, 'design' ) ;
#12 = COORDINATED_UNIVERSAL_TIME_OFFSET ( 5, 0, .BEHIND. ) ;
#13 = DATE_TIME_ROLE ( 'classification_date' ) ;
#14 = FACE_OUTER_BOUND ( 'NONE', #131, .T. ) ;
#15 = PERSON_AND_ORGANIZATION ( #27, #38 ) ;
#16 = ADVANCED_BREP_SHAPE_REPRESENTATION ( 'Web Model 14963_18341', ( #146, #125 ), #115 ) ;
#17 = SHAPE_DEFINITION_REPRESENTATION ( #1, #16 ) ;
#18 = DIRECTION ( 'NONE',  ( 0.000000000000000000, 0.000000000000000000, -1.000000000000000000 ) ) ;
#19 = PERSON_AND_ORGANIZATION ( #27, #38 ) ;
#20 = DIRECTION ( 'NONE',  ( -1.000000000000000000, -0.000000000000000000, -0.000000000000000000 ) ) ;
#21 = APPLICATION_CONTEXT ( 'configuration controlled 3d designs of mechanical parts and assemblies' ) ;
#22 = PERSON_AND_ORGANIZATION_ROLE ( 'design_owner' ) ;
#23 = CIRCLE ( 'NONE', #80, 12.50000000000000000 ) ;
#24 = PERSON_AND_ORGANIZATION_ROLE ( 'creator' ) ;
#25 = APPROVAL_ROLE ( '' ) ;
#26 = ORIENTED_EDGE ( 'NONE', *, *, #31, .T. ) ;
#27 = PERSON ( 'UNSPECIFIED', 'UNSPECIFIED', 'UNSPECIFIED', ('UNSPECIFIED'), ('UNSPECIFIED'), ('UNSPECIFIED') ) ;
#28 = ORIENTED_EDGE ( 'NONE', *, *, #167, .F. ) ;
#29 = CC_DESIGN_DATE_AND_TIME_ASSIGNMENT ( #150, #145, ( #121 ) ) ;
#30 = APPROVAL ( #41, 'UNSPECIFIED' ) ;
#31 = EDGE_CURVE ( 'NONE', #134, #171, #23, .T. ) ;
#32 = ADVANCED_FACE ( 'NONE', ( #92 ), #59, .T. ) ;
#33 = COORDINATED_UNIVERSAL_TIME_OFFSET ( 5, 0, .BEHIND. ) ;
#34 = EDGE_LOOP ( 'NONE', ( #43, #48 ) ) ;
#35 = AXIS2_PLACEMENT_3D ( 'NONE', #6, #170, #89 ) ;
#36 = DIRECTION ( 'NONE',  ( 0.000000000000000000, 0.000000000000000000, 1.000000000000000000 ) ) ;
#37 = DIRECTION ( 'NONE',  ( 0.000000000000000000, 0.000000000000000000, 1.000000000000000000 ) ) ;
#38 = ORGANIZATION ( 'UNSPECIFIED', 'UNSPECIFIED', '' ) ;
#39 = APPLICATION_CONTEXT ( 'configuration controlled 3d designs of mechanical parts and assemblies' ) ;
#40 = SECURITY_CLASSIFICATION_LEVEL ( 'unclassified' ) ;
#41 = APPROVAL_STATUS ( 'not_yet_approved' ) ;
#42 = APPROVAL_DATE_TIME ( #122, #157 ) ;
#43 = ORIENTED_EDGE ( 'NONE', *, *, #144, .F. ) ;
#44 = PERSON_AND_ORGANIZATION_ROLE ( 'classification_officer' ) ;
#45 = CC_DESIGN_APPROVAL ( #30, ( #175 ) ) ;
#46 = PRODUCT ( 'Web Model 14963_18341', 'Web Model 14963_18341', '', ( #155 ) ) ;
#47 = PRODUCT_RELATED_PRODUCT_CATEGORY ( 'detail', '', ( #46 ) ) ;
#48 = ORIENTED_EDGE ( 'NONE', *, *, #31, .F. ) ;
#49 = PERSON_AND_ORGANIZATION ( #27, #38 ) ;
#50 = DIRECTION ( 'NONE',  ( 0.000000000000000000, 0.000000000000000000, -1.000000000000000000 ) ) ;
#51 = DIRECTION ( 'NONE',  ( 1.000000000000000000, 0.000000000000000000, 0.000000000000000000 ) ) ;
#52 = ADVANCED_FACE ( 'NONE', ( #65 ), #100, .F. ) ;
#53 = CC_DESIGN_PERSON_AND_ORGANIZATION_ASSIGNMENT ( #93, #5, ( #121 ) ) ;
#54 = APPROVAL_STATUS ( 'not_yet_approved' ) ;
#55 = COORDINATED_UNIVERSAL_TIME_OFFSET ( 5, 0, .BEHIND. ) ;
#56 = COORDINATED_UNIVERSAL_TIME_OFFSET ( 5, 0, .BEHIND. ) ;
#57 = PRODUCT_DEFINITION_FORMATION_WITH_SPECIFIED_SOURCE ( 'ANY', '', #46, .NOT_KNOWN. ) ;
#58 = LINE ( 'NONE', #90, #164 ) ;
#59 = PLANE ( 'NONE',  #162 ) ;
#60 = LOCAL_TIME ( 11, 37, 11.00000000000000000, #12 ) ;
#61 = EDGE_LOOP ( 'NONE', ( #105, #70 ) ) ;
#62 = DIRECTION ( 'NONE',  ( 0.000000000000000000, 0.000000000000000000, -1.000000000000000000 ) ) ;
#63 = CARTESIAN_POINT ( 'NONE',  ( 1.500000000000000000, 0.000000000000000000, 0.000000000000000000 ) ) ;
#64 = APPLICATION_PROTOCOL_DEFINITION ( 'international standard', 'config_control_design', 1994, #21 ) ;
#65 = FACE_OUTER_BOUND ( 'NONE', #34, .T. ) ;
#66 = APPROVAL_ROLE ( '' ) ;
#67 = EDGE_CURVE ( 'NONE', #147, #120, #124, .T. ) ;
#68 = APPROVAL_DATE_TIME ( #97, #30 ) ;
#69 = ORIENTED_EDGE ( 'NONE', *, *, #67, .F. ) ;
#70 = ORIENTED_EDGE ( 'NONE', *, *, #158, .T. ) ;
#71 = APPROVAL_PERSON_ORGANIZATION ( #104, #30, #159 ) ;
#72 = CIRCLE ( 'NONE', #35, 12.50000000000000000 ) ;
#73 = ADVANCED_FACE ( 'NONE', ( #86 ), #3, .T. ) ;
#74 = CC_DESIGN_APPROVAL ( #157, ( #57 ) ) ;
#75 = CARTESIAN_POINT ( 'NONE',  ( 1.500000000000000000, 1.530808498934191521E-15, -12.50000000000000000 ) ) ;
#76 = DIRECTION ( 'NONE',  ( 1.000000000000000000, 0.000000000000000000, 0.000000000000000000 ) ) ;
#77 =( NAMED_UNIT ( * ) PLANE_ANGLE_UNIT ( ) SI_UNIT ( $, .RADIAN. ) );
#78 = CARTESIAN_POINT ( 'NONE',  ( -1.500000000000000000, 1.530808498934191521E-15, -12.50000000000000000 ) ) ;
#79 = CC_DESIGN_PERSON_AND_ORGANIZATION_ASSIGNMENT ( #91, #44, ( #175 ) ) ;
#80 = AXIS2_PLACEMENT_3D ( 'NONE', #149, #165, #137 ) ;
#81 = AXIS2_PLACEMENT_3D ( 'NONE', #111, #168, #50 ) ;
#82 = APPROVAL_DATE_TIME ( #110, #103 ) ;
#83 = EDGE_LOOP ( 'NONE', ( #28, #69, #166, #153 ) ) ;
#84 = LOCAL_TIME ( 11, 37, 11.00000000000000000, #55 ) ;
#85 = AXIS2_PLACEMENT_3D ( 'NONE', #63, #126, #127 ) ;
#86 = FACE_OUTER_BOUND ( 'NONE', #83, .T. ) ;
#87 = COORDINATED_UNIVERSAL_TIME_OFFSET ( 5, 0, .BEHIND. ) ;
#88 = AXIS2_PLACEMENT_3D ( 'NONE', #109, #10, #101 ) ;
#89 = DIRECTION ( 'NONE',  ( 0.000000000000000000, 0.000000000000000000, -1.000000000000000000 ) ) ;
#90 = CARTESIAN_POINT ( 'NONE',  ( 1.500000000000000000, 0.000000000000000000, 12.50000000000000000 ) ) ;
#91 = PERSON_AND_ORGANIZATION ( #27, #38 ) ;
#92 = FACE_OUTER_BOUND ( 'NONE', #61, .T. ) ;
#93 = PERSON_AND_ORGANIZATION ( #27, #38 ) ;
#94 = AXIS2_PLACEMENT_3D ( 'NONE', #141, #172, #37 ) ;
#95 = LINE ( 'NONE', #140, #98 ) ;
#96 = CARTESIAN_POINT ( 'NONE',  ( 1.500000000000000000, 0.000000000000000000, 0.000000000000000000 ) ) ;
#97 = DATE_AND_TIME ( #133, #174 ) ;
#98 = VECTOR ( 'NONE', #20, 1000.000000000000000 ) ;
#99 = CARTESIAN_POINT ( 'NONE',  ( 0.000000000000000000, 0.000000000000000000, 0.000000000000000000 ) ) ;
#100 = PLANE ( 'NONE',  #81 ) ;
#101 = DIRECTION ( 'NONE',  ( 0.000000000000000000, 0.000000000000000000, -1.000000000000000000 ) ) ;
#102 = CARTESIAN_POINT ( 'NONE',  ( 1.500000000000000000, 0.000000000000000000, 0.000000000000000000 ) ) ;
#103 = APPROVAL ( #54, 'UNSPECIFIED' ) ;
#104 = PERSON_AND_ORGANIZATION ( #27, #38 ) ;
#105 = ORIENTED_EDGE ( 'NONE', *, *, #67, .T. ) ;
#106 = APPROVAL_PERSON_ORGANIZATION ( #15, #157, #25 ) ;
#107 = CYLINDRICAL_SURFACE ( 'NONE', #85, 12.50000000000000000 ) ;
#108 = UNCERTAINTY_MEASURE_WITH_UNIT (LENGTH_MEASURE( 1.000000000000000082E-05 ), #173, 'distance_accuracy_value', 'NONE');
#109 = CARTESIAN_POINT ( 'NONE',  ( 1.500000000000000000, 0.000000000000000000, 0.000000000000000000 ) ) ;
#110 = DATE_AND_TIME ( #156, #113 ) ;
#111 = CARTESIAN_POINT ( 'NONE',  ( -1.500000000000000000, 0.000000000000000000, 0.000000000000000000 ) ) ;
#112 = APPROVAL_STATUS ( 'not_yet_approved' ) ;
#113 = LOCAL_TIME ( 11, 37, 11.00000000000000000, #56 ) ;
#114 = CC_DESIGN_PERSON_AND_ORGANIZATION_ASSIGNMENT ( #136, #22, ( #46 ) ) ;
#115 =( GEOMETRIC_REPRESENTATION_CONTEXT ( 3 ) GLOBAL_UNCERTAINTY_ASSIGNED_CONTEXT ( ( #108 ) ) GLOBAL_UNIT_ASSIGNED_CONTEXT ( ( #173, #77, #151 ) ) REPRESENTATION_CONTEXT ( 'NONE', 'WORKASPACE' ) );
#116 = ORIENTED_EDGE ( 'NONE', *, *, #158, .F. ) ;
#117 = CC_DESIGN_APPROVAL ( #103, ( #121 ) ) ;
#118 = PERSON_AND_ORGANIZATION ( #27, #38 ) ;
#119 = AXIS2_PLACEMENT_3D ( 'NONE', #102, #123, #18 ) ;
#120 = VERTEX_POINT ( 'NONE', #75 ) ;
#121 = PRODUCT_DEFINITION ( 'UNKNOWN', '', #57, #11 ) ;
#122 = DATE_AND_TIME ( #160, #139 ) ;
#123 = DIRECTION ( 'NONE',  ( 1.000000000000000000, 0.000000000000000000, 0.000000000000000000 ) ) ;
#124 = CIRCLE ( 'NONE', #119, 12.50000000000000000 ) ;
#125 = AXIS2_PLACEMENT_3D ( 'NONE', #99, #36, #51 ) ;
#126 = DIRECTION ( 'NONE',  ( -1.000000000000000000, -0.000000000000000000, -0.000000000000000000 ) ) ;
#127 = DIRECTION ( 'NONE',  ( 0.000000000000000000, 0.000000000000000000, 1.000000000000000000 ) ) ;
#128 = APPLICATION_PROTOCOL_DEFINITION ( 'international standard', 'config_control_design', 1994, #39 ) ;
#129 = CIRCLE ( 'NONE', #88, 12.50000000000000000 ) ;
#130 = CC_DESIGN_PERSON_AND_ORGANIZATION_ASSIGNMENT ( #49, #24, ( #57 ) ) ;
#131 = EDGE_LOOP ( 'NONE', ( #116, #9, #26, #161 ) ) ;
#132 = EDGE_CURVE ( 'NONE', #147, #171, #58, .T. ) ;
#133 = CALENDAR_DATE ( 2021, 28, 6 ) ;
#134 = VERTEX_POINT ( 'NONE', #78 ) ;
#135 = CLOSED_SHELL ( 'NONE', ( #169, #73, #32, #52 ) ) ;
#136 = PERSON_AND_ORGANIZATION ( #27, #38 ) ;
#137 = DIRECTION ( 'NONE',  ( 0.000000000000000000, 0.000000000000000000, -1.000000000000000000 ) ) ;
#138 = DIRECTION ( 'NONE',  ( -1.000000000000000000, -0.000000000000000000, -0.000000000000000000 ) ) ;
#139 = LOCAL_TIME ( 11, 37, 11.00000000000000000, #87 ) ;
#140 = CARTESIAN_POINT ( 'NONE',  ( 1.500000000000000000, 1.530808498934191521E-15, -12.50000000000000000 ) ) ;
#141 = CARTESIAN_POINT ( 'NONE',  ( 1.500000000000000000, 0.000000000000000000, 0.000000000000000000 ) ) ;
#142 = CALENDAR_DATE ( 2021, 28, 6 ) ;
#143 = PERSON_AND_ORGANIZATION_ROLE ( 'design_supplier' ) ;
#144 = EDGE_CURVE ( 'NONE', #171, #134, #72, .T. ) ;
#145 = DATE_TIME_ROLE ( 'creation_date' ) ;
#146 = MANIFOLD_SOLID_BREP ( 'Boss-Extrude1', #135 ) ;
#147 = VERTEX_POINT ( 'NONE', #8 ) ;
#148 = CALENDAR_DATE ( 2021, 28, 6 ) ;
#149 = CARTESIAN_POINT ( 'NONE',  ( -1.500000000000000000, 0.000000000000000000, 0.000000000000000000 ) ) ;
#150 = DATE_AND_TIME ( #142, #84 ) ;
#151 =( NAMED_UNIT ( * ) SI_UNIT ( $, .STERADIAN. ) SOLID_ANGLE_UNIT ( ) );
#152 = CC_DESIGN_PERSON_AND_ORGANIZATION_ASSIGNMENT ( #118, #143, ( #57 ) ) ;
#153 = ORIENTED_EDGE ( 'NONE', *, *, #144, .T. ) ;
#154 = CARTESIAN_POINT ( 'NONE',  ( -1.500000000000000000, 0.000000000000000000, 12.50000000000000000 ) ) ;
#155 = MECHANICAL_CONTEXT ( 'NONE', #21, 'mechanical' ) ;
#156 = CALENDAR_DATE ( 2021, 28, 6 ) ;
#157 = APPROVAL ( #112, 'UNSPECIFIED' ) ;
#158 = EDGE_CURVE ( 'NONE', #120, #147, #129, .T. ) ;
#159 = APPROVAL_ROLE ( '' ) ;
#160 = CALENDAR_DATE ( 2021, 28, 6 ) ;
#161 = ORIENTED_EDGE ( 'NONE', *, *, #132, .F. ) ;
#162 = AXIS2_PLACEMENT_3D ( 'NONE', #96, #76, #62 ) ;
#163 = CC_DESIGN_DATE_AND_TIME_ASSIGNMENT ( #2, #13, ( #175 ) ) ;
#164 = VECTOR ( 'NONE', #138, 1000.000000000000000 ) ;
#165 = DIRECTION ( 'NONE',  ( 1.000000000000000000, 0.000000000000000000, 0.000000000000000000 ) ) ;
#166 = ORIENTED_EDGE ( 'NONE', *, *, #132, .T. ) ;
#167 = EDGE_CURVE ( 'NONE', #120, #134, #95, .T. ) ;
#168 = DIRECTION ( 'NONE',  ( 1.000000000000000000, 0.000000000000000000, 0.000000000000000000 ) ) ;
#169 = ADVANCED_FACE ( 'NONE', ( #14 ), #107, .T. ) ;
#170 = DIRECTION ( 'NONE',  ( 1.000000000000000000, 0.000000000000000000, 0.000000000000000000 ) ) ;
#171 = VERTEX_POINT ( 'NONE', #154 ) ;
#172 = DIRECTION ( 'NONE',  ( -1.000000000000000000, -0.000000000000000000, -0.000000000000000000 ) ) ;
#173 =( LENGTH_UNIT ( ) NAMED_UNIT ( * ) SI_UNIT ( .MILLI., .METRE. ) );
#174 = LOCAL_TIME ( 11, 37, 11.00000000000000000, #33 ) ;
#175 = SECURITY_CLASSIFICATION ( '', '', #40 ) ;
ENDSEC;
END-ISO-10303-21;
