ISO-10303-21;
HEADER;
FILE_DESCRIPTION (( 'STEP AP203' ),
    '1' );
FILE_NAME ('Web Model 43366_20848.step',
    '2022-03-15T18:07:39',
    ( '' ),
    ( '' ),
    'SwSTEP 2.0',
    'SolidWorks 2021',
    '' );
FILE_SCHEMA (( 'CONFIG_CONTROL_DESIGN' ));
ENDSEC;

DATA;
#1 = CARTESIAN_POINT ( 'NONE',  ( 0.000000000000000000, 0.000000000000000000, 0.5000000000000000000 ) ) ;
#2 = ORIENTED_EDGE ( 'NONE', *, *, #130, .F. ) ;
#3 = FACE_OUTER_BOUND ( 'NONE', #112, .T. ) ;
#4 = APPLICATION_CONTEXT ( 'configuration controlled 3d designs of mechanical parts and assemblies' ) ;
#5 = CYLINDRICAL_SURFACE ( 'NONE', #60, 5.000000000000000000 ) ;
#6 = PERSON_AND_ORGANIZATION_ROLE ( 'classification_officer' ) ;
#7 = CIRCLE ( 'NONE', #65, 5.000000000000000000 ) ;
#8 = AXIS2_PLACEMENT_3D ( 'NONE', #22, #121, #78 ) ;
#9 = PERSON_AND_ORGANIZATION_ROLE ( 'creator' ) ;
#10 = UNCERTAINTY_MEASURE_WITH_UNIT (LENGTH_MEASURE( 1.000000000000000082E-05 ), #120, 'distance_accuracy_value', 'NONE');
#11 = PERSON_AND_ORGANIZATION ( #70, #74 ) ;
#12 = APPROVAL_ROLE ( '' ) ;
#13 = APPROVAL_PERSON_ORGANIZATION ( #134, #149, #12 ) ;
#14 = DATE_AND_TIME ( #81, #135 ) ;
#15 = APPROVAL ( #169, 'UNSPECIFIED' ) ;
#16 = CARTESIAN_POINT ( 'NONE',  ( 5.000000000000000000, 6.123233995736766282E-16, 0.5000000000000000000 ) ) ;
#17 = ORIENTED_EDGE ( 'NONE', *, *, #21, .T. ) ;
#18 = DIRECTION ( 'NONE',  ( 0.000000000000000000, 0.000000000000000000, 1.000000000000000000 ) ) ;
#19 = DIRECTION ( 'NONE',  ( 0.000000000000000000, 0.000000000000000000, 1.000000000000000000 ) ) ;
#20 = COORDINATED_UNIVERSAL_TIME_OFFSET ( 5, 0, .BEHIND. ) ;
#21 = EDGE_CURVE ( 'NONE', #43, #164, #77, .T. ) ;
#22 = CARTESIAN_POINT ( 'NONE',  ( 0.000000000000000000, 0.000000000000000000, 0.5000000000000000000 ) ) ;
#23 = PERSON_AND_ORGANIZATION ( #70, #74 ) ;
#24 = CC_DESIGN_PERSON_AND_ORGANIZATION_ASSIGNMENT ( #37, #6, ( #50 ) ) ;
#25 = EDGE_CURVE ( 'NONE', #32, #85, #97, .T. ) ;
#26 = CARTESIAN_POINT ( 'NONE',  ( -5.000000000000000000, 0.000000000000000000, 0.5000000000000000000 ) ) ;
#27 = EDGE_LOOP ( 'NONE', ( #31, #163 ) ) ;
#28 = FACE_OUTER_BOUND ( 'NONE', #39, .T. ) ;
#29 = DIRECTION ( 'NONE',  ( 1.000000000000000000, 0.000000000000000000, 0.000000000000000000 ) ) ;
#30 = MANIFOLD_SOLID_BREP ( 'Boss-Extrude1', #84 ) ;
#31 = ORIENTED_EDGE ( 'NONE', *, *, #25, .F. ) ;
#32 = VERTEX_POINT ( 'NONE', #115 ) ;
#33 = LOCAL_TIME ( 14, 7, 39.00000000000000000, #20 ) ;
#34 = DIRECTION ( 'NONE',  ( 1.000000000000000000, 0.000000000000000000, 0.000000000000000000 ) ) ;
#35 = CALENDAR_DATE ( 2022, 15, 3 ) ;
#36 = ADVANCED_FACE ( 'NONE', ( #68 ), #5, .T. ) ;
#37 = PERSON_AND_ORGANIZATION ( #70, #74 ) ;
#38 = COORDINATED_UNIVERSAL_TIME_OFFSET ( 5, 0, .BEHIND. ) ;
#39 = EDGE_LOOP ( 'NONE', ( #17, #127 ) ) ;
#40 = CC_DESIGN_PERSON_AND_ORGANIZATION_ASSIGNMENT ( #168, #156, ( #151 ) ) ;
#41 = ORIENTED_EDGE ( 'NONE', *, *, #130, .T. ) ;
#42 = CARTESIAN_POINT ( 'NONE',  ( 0.000000000000000000, 0.000000000000000000, 0.000000000000000000 ) ) ;
#43 = VERTEX_POINT ( 'NONE', #83 ) ;
#44 = PRODUCT_DEFINITION ( 'UNKNOWN', '', #89, #95 ) ;
#45 = LINE ( 'NONE', #16, #173 ) ;
#46 = CARTESIAN_POINT ( 'NONE',  ( 5.000000000000000000, 6.123233995736766282E-16, 0.000000000000000000 ) ) ;
#47 = CC_DESIGN_SECURITY_CLASSIFICATION ( #50, ( #89 ) ) ;
#48 = APPROVAL_STATUS ( 'not_yet_approved' ) ;
#49 = DIRECTION ( 'NONE',  ( 0.000000000000000000, 0.000000000000000000, 1.000000000000000000 ) ) ;
#50 = SECURITY_CLASSIFICATION ( '', '', #59 ) ;
#51 = CYLINDRICAL_SURFACE ( 'NONE', #8, 5.000000000000000000 ) ;
#52 = MECHANICAL_CONTEXT ( 'NONE', #4, 'mechanical' ) ;
#53 = APPROVAL_DATE_TIME ( #14, #117 ) ;
#54 = CC_DESIGN_APPROVAL ( #149, ( #89 ) ) ;
#55 = PLANE ( 'NONE',  #111 ) ;
#56 = ORIENTED_EDGE ( 'NONE', *, *, #25, .T. ) ;
#57 = DIRECTION ( 'NONE',  ( -0.000000000000000000, -0.000000000000000000, -1.000000000000000000 ) ) ;
#58 = DIRECTION ( 'NONE',  ( -1.000000000000000000, 0.000000000000000000, 0.000000000000000000 ) ) ;
#59 = SECURITY_CLASSIFICATION_LEVEL ( 'unclassified' ) ;
#60 = AXIS2_PLACEMENT_3D ( 'NONE', #166, #167, #58 ) ;
#61 = PERSON_AND_ORGANIZATION ( #70, #74 ) ;
#62 = APPROVAL_ROLE ( '' ) ;
#63 = COORDINATED_UNIVERSAL_TIME_OFFSET ( 5, 0, .BEHIND. ) ;
#64 = PRODUCT_DEFINITION_SHAPE ( 'NONE', 'NONE',  #44 ) ;
#65 = AXIS2_PLACEMENT_3D ( 'NONE', #42, #66, #139 ) ;
#66 = DIRECTION ( 'NONE',  ( 0.000000000000000000, 0.000000000000000000, 1.000000000000000000 ) ) ;
#67 = PRODUCT_RELATED_PRODUCT_CATEGORY ( 'detail', '', ( #151 ) ) ;
#68 = FACE_OUTER_BOUND ( 'NONE', #142, .T. ) ;
#69 = EDGE_CURVE ( 'NONE', #164, #85, #45, .T. ) ;
#70 = PERSON ( 'UNSPECIFIED', 'UNSPECIFIED', 'UNSPECIFIED', ('UNSPECIFIED'), ('UNSPECIFIED'), ('UNSPECIFIED') ) ;
#71 = DIRECTION ( 'NONE',  ( 1.000000000000000000, 0.000000000000000000, -0.000000000000000000 ) ) ;
#72 = APPLICATION_CONTEXT ( 'configuration controlled 3d designs of mechanical parts and assemblies' ) ;
#73 = DIRECTION ( 'NONE',  ( 1.000000000000000000, 0.000000000000000000, -0.000000000000000000 ) ) ;
#74 = ORGANIZATION ( 'UNSPECIFIED', 'UNSPECIFIED', '' ) ;
#75 = CARTESIAN_POINT ( 'NONE',  ( 0.000000000000000000, 0.000000000000000000, 0.000000000000000000 ) ) ;
#76 = DATE_AND_TIME ( #107, #143 ) ;
#77 = CIRCLE ( 'NONE', #147, 5.000000000000000000 ) ;
#78 = DIRECTION ( 'NONE',  ( -1.000000000000000000, 0.000000000000000000, 0.000000000000000000 ) ) ;
#79 = DATE_TIME_ROLE ( 'creation_date' ) ;
#80 = LOCAL_TIME ( 14, 7, 39.00000000000000000, #38 ) ;
#81 = CALENDAR_DATE ( 2022, 15, 3 ) ;
#82 = SHAPE_DEFINITION_REPRESENTATION ( #64, #99 ) ;
#83 = CARTESIAN_POINT ( 'NONE',  ( -5.000000000000000000, 0.000000000000000000, 0.5000000000000000000 ) ) ;
#84 = CLOSED_SHELL ( 'NONE', ( #36, #170, #140, #160 ) ) ;
#85 = VERTEX_POINT ( 'NONE', #46 ) ;
#86 = CARTESIAN_POINT ( 'NONE',  ( 0.000000000000000000, 0.000000000000000000, 0.5000000000000000000 ) ) ;
#87 = DIRECTION ( 'NONE',  ( 0.000000000000000000, 0.000000000000000000, 1.000000000000000000 ) ) ;
#88 = CARTESIAN_POINT ( 'NONE',  ( 0.000000000000000000, 0.000000000000000000, 0.000000000000000000 ) ) ;
#89 = PRODUCT_DEFINITION_FORMATION_WITH_SPECIFIED_SOURCE ( 'ANY', '', #151, .NOT_KNOWN. ) ;
#90 = PERSON_AND_ORGANIZATION_ROLE ( 'creator' ) ;
#91 = CALENDAR_DATE ( 2022, 15, 3 ) ;
#92 = CC_DESIGN_DATE_AND_TIME_ASSIGNMENT ( #157, #93, ( #50 ) ) ;
#93 = DATE_TIME_ROLE ( 'classification_date' ) ;
#94 = CARTESIAN_POINT ( 'NONE',  ( 0.000000000000000000, 0.000000000000000000, 0.000000000000000000 ) ) ;
#95 = DESIGN_CONTEXT ( 'detailed design', #72, 'design' ) ;
#96 =( NAMED_UNIT ( * ) SI_UNIT ( $, .STERADIAN. ) SOLID_ANGLE_UNIT ( ) );
#97 = CIRCLE ( 'NONE', #161, 5.000000000000000000 ) ;
#98 = AXIS2_PLACEMENT_3D ( 'NONE', #94, #49, #34 ) ;
#99 = ADVANCED_BREP_SHAPE_REPRESENTATION ( 'Web Model 43366_20848', ( #30, #98 ), #100 ) ;
#100 =( GEOMETRIC_REPRESENTATION_CONTEXT ( 3 ) GLOBAL_UNCERTAINTY_ASSIGNED_CONTEXT ( ( #10 ) ) GLOBAL_UNIT_ASSIGNED_CONTEXT ( ( #120, #110, #96 ) ) REPRESENTATION_CONTEXT ( 'NONE', 'WORKASPACE' ) );
#101 = CC_DESIGN_APPROVAL ( #15, ( #44 ) ) ;
#102 = ORIENTED_EDGE ( 'NONE', *, *, #108, .F. ) ;
#103 = ORIENTED_EDGE ( 'NONE', *, *, #118, .T. ) ;
#104 = LINE ( 'NONE', #26, #138 ) ;
#105 = CC_DESIGN_APPROVAL ( #117, ( #50 ) ) ;
#106 = CC_DESIGN_PERSON_AND_ORGANIZATION_ASSIGNMENT ( #144, #131, ( #89 ) ) ;
#107 = CALENDAR_DATE ( 2022, 15, 3 ) ;
#108 = EDGE_CURVE ( 'NONE', #164, #43, #172, .T. ) ;
#109 = APPLICATION_PROTOCOL_DEFINITION ( 'international standard', 'config_control_design', 1994, #4 ) ;
#110 =( NAMED_UNIT ( * ) PLANE_ANGLE_UNIT ( ) SI_UNIT ( $, .RADIAN. ) );
#111 = AXIS2_PLACEMENT_3D ( 'NONE', #86, #18, #71 ) ;
#112 = EDGE_LOOP ( 'NONE', ( #126, #114, #41, #56 ) ) ;
#113 = DIRECTION ( 'NONE',  ( -0.000000000000000000, -0.000000000000000000, -1.000000000000000000 ) ) ;
#114 = ORIENTED_EDGE ( 'NONE', *, *, #21, .F. ) ;
#115 = CARTESIAN_POINT ( 'NONE',  ( -5.000000000000000000, 0.000000000000000000, 0.000000000000000000 ) ) ;
#116 = DIRECTION ( 'NONE',  ( 0.000000000000000000, 0.000000000000000000, 1.000000000000000000 ) ) ;
#117 = APPROVAL ( #146, 'UNSPECIFIED' ) ;
#118 = EDGE_CURVE ( 'NONE', #85, #32, #7, .T. ) ;
#119 = DATE_AND_TIME ( #91, #80 ) ;
#120 =( LENGTH_UNIT ( ) NAMED_UNIT ( * ) SI_UNIT ( .MILLI., .METRE. ) );
#121 = DIRECTION ( 'NONE',  ( -0.000000000000000000, -0.000000000000000000, -1.000000000000000000 ) ) ;
#122 = DATE_AND_TIME ( #35, #155 ) ;
#123 = APPROVAL_ROLE ( '' ) ;
#124 = AXIS2_PLACEMENT_3D ( 'NONE', #88, #19, #73 ) ;
#125 = COORDINATED_UNIVERSAL_TIME_OFFSET ( 5, 0, .BEHIND. ) ;
#126 = ORIENTED_EDGE ( 'NONE', *, *, #69, .F. ) ;
#127 = ORIENTED_EDGE ( 'NONE', *, *, #108, .T. ) ;
#128 = DIRECTION ( 'NONE',  ( 1.000000000000000000, 0.000000000000000000, 0.000000000000000000 ) ) ;
#129 = CARTESIAN_POINT ( 'NONE',  ( 5.000000000000000000, 6.123233995736766282E-16, 0.5000000000000000000 ) ) ;
#130 = EDGE_CURVE ( 'NONE', #43, #32, #104, .T. ) ;
#131 = PERSON_AND_ORGANIZATION_ROLE ( 'design_supplier' ) ;
#132 = CALENDAR_DATE ( 2022, 15, 3 ) ;
#133 = APPLICATION_PROTOCOL_DEFINITION ( 'international standard', 'config_control_design', 1994, #72 ) ;
#134 = PERSON_AND_ORGANIZATION ( #70, #74 ) ;
#135 = LOCAL_TIME ( 14, 7, 39.00000000000000000, #125 ) ;
#136 = CC_DESIGN_DATE_AND_TIME_ASSIGNMENT ( #76, #79, ( #44 ) ) ;
#137 = DIRECTION ( 'NONE',  ( 0.000000000000000000, 0.000000000000000000, 1.000000000000000000 ) ) ;
#138 = VECTOR ( 'NONE', #113, 1000.000000000000000 ) ;
#139 = DIRECTION ( 'NONE',  ( 1.000000000000000000, 0.000000000000000000, 0.000000000000000000 ) ) ;
#140 = ADVANCED_FACE ( 'NONE', ( #28 ), #55, .T. ) ;
#141 = PLANE ( 'NONE',  #124 ) ;
#142 = EDGE_LOOP ( 'NONE', ( #102, #152, #103, #2 ) ) ;
#143 = LOCAL_TIME ( 14, 7, 39.00000000000000000, #145 ) ;
#144 = PERSON_AND_ORGANIZATION ( #70, #74 ) ;
#145 = COORDINATED_UNIVERSAL_TIME_OFFSET ( 5, 0, .BEHIND. ) ;
#146 = APPROVAL_STATUS ( 'not_yet_approved' ) ;
#147 = AXIS2_PLACEMENT_3D ( 'NONE', #153, #137, #175 ) ;
#148 = APPROVAL_DATE_TIME ( #119, #15 ) ;
#149 = APPROVAL ( #48, 'UNSPECIFIED' ) ;
#150 = AXIS2_PLACEMENT_3D ( 'NONE', #1, #87, #128 ) ;
#151 = PRODUCT ( 'Web Model 43366_20848', 'Web Model 43366_20848', '', ( #52 ) ) ;
#152 = ORIENTED_EDGE ( 'NONE', *, *, #69, .T. ) ;
#153 = CARTESIAN_POINT ( 'NONE',  ( 0.000000000000000000, 0.000000000000000000, 0.5000000000000000000 ) ) ;
#154 = PERSON_AND_ORGANIZATION ( #70, #74 ) ;
#155 = LOCAL_TIME ( 14, 7, 39.00000000000000000, #63 ) ;
#156 = PERSON_AND_ORGANIZATION_ROLE ( 'design_owner' ) ;
#157 = DATE_AND_TIME ( #132, #33 ) ;
#158 = CC_DESIGN_PERSON_AND_ORGANIZATION_ASSIGNMENT ( #23, #9, ( #44 ) ) ;
#159 = CC_DESIGN_PERSON_AND_ORGANIZATION_ASSIGNMENT ( #154, #90, ( #89 ) ) ;
#160 = ADVANCED_FACE ( 'NONE', ( #165 ), #141, .F. ) ;
#161 = AXIS2_PLACEMENT_3D ( 'NONE', #75, #116, #29 ) ;
#162 = APPROVAL_PERSON_ORGANIZATION ( #11, #15, #62 ) ;
#163 = ORIENTED_EDGE ( 'NONE', *, *, #118, .F. ) ;
#164 = VERTEX_POINT ( 'NONE', #129 ) ;
#165 = FACE_OUTER_BOUND ( 'NONE', #27, .T. ) ;
#166 = CARTESIAN_POINT ( 'NONE',  ( 0.000000000000000000, 0.000000000000000000, 0.5000000000000000000 ) ) ;
#167 = DIRECTION ( 'NONE',  ( -0.000000000000000000, -0.000000000000000000, -1.000000000000000000 ) ) ;
#168 = PERSON_AND_ORGANIZATION ( #70, #74 ) ;
#169 = APPROVAL_STATUS ( 'not_yet_approved' ) ;
#170 = ADVANCED_FACE ( 'NONE', ( #3 ), #51, .T. ) ;
#171 = APPROVAL_DATE_TIME ( #122, #149 ) ;
#172 = CIRCLE ( 'NONE', #150, 5.000000000000000000 ) ;
#173 = VECTOR ( 'NONE', #57, 1000.000000000000000 ) ;
#174 = APPROVAL_PERSON_ORGANIZATION ( #61, #117, #123 ) ;
#175 = DIRECTION ( 'NONE',  ( 1.000000000000000000, 0.000000000000000000, 0.000000000000000000 ) ) ;
ENDSEC;
END-ISO-10303-21;
