ISO-10303-21;
HEADER;
FILE_DESCRIPTION (( 'STEP AP203' ),
    '1' );
FILE_NAME ('Web Model 14967_18345.step',
    '2021-06-28T15:58:18',
    ( '' ),
    ( '' ),
    'SwSTEP 2.0',
    'SolidWorks 2018',
    '' );
FILE_SCHEMA (( 'CONFIG_CONTROL_DESIGN' ));
ENDSEC;

DATA;
#1 = ADVANCED_FACE ( 'NONE', ( #66 ), #57, .F. ) ;
#2 = ORIENTED_EDGE ( 'NONE', *, *, #14, .T. ) ;
#3 = DIRECTION ( 'NONE',  ( -1.000000000000000000, -0.000000000000000000, -0.000000000000000000 ) ) ;
#4 = APPROVAL_PERSON_ORGANIZATION ( #166, #144, #50 ) ;
#5 = APPROVAL_STATUS ( 'not_yet_approved' ) ;
#6 = DIRECTION ( 'NONE',  ( 1.000000000000000000, 0.000000000000000000, 0.000000000000000000 ) ) ;
#7 = APPROVAL_STATUS ( 'not_yet_approved' ) ;
#8 = AXIS2_PLACEMENT_3D ( 'NONE', #117, #76, #151 ) ;
#9 = PERSON_AND_ORGANIZATION ( #171, #104 ) ;
#10 = CALENDAR_DATE ( 2021, 28, 6 ) ;
#11 = ADVANCED_BREP_SHAPE_REPRESENTATION ( 'Web Model 14967_18345', ( #46, #121 ), #70 ) ;
#12 = DIRECTION ( 'NONE',  ( 1.000000000000000000, 0.000000000000000000, 0.000000000000000000 ) ) ;
#13 = CIRCLE ( 'NONE', #163, 37.50000000000000711 ) ;
#14 = EDGE_CURVE ( 'NONE', #106, #83, #13, .T. ) ;
#15 = ADVANCED_FACE ( 'NONE', ( #120 ), #175, .T. ) ;
#16 = CC_DESIGN_PERSON_AND_ORGANIZATION_ASSIGNMENT ( #9, #34, ( #68 ) ) ;
#17 = AXIS2_PLACEMENT_3D ( 'NONE', #92, #12, #108 ) ;
#18 = PERSON_AND_ORGANIZATION_ROLE ( 'creator' ) ;
#19 = ORIENTED_EDGE ( 'NONE', *, *, #91, .F. ) ;
#20 = CC_DESIGN_PERSON_AND_ORGANIZATION_ASSIGNMENT ( #90, #112, ( #136 ) ) ;
#21 = COORDINATED_UNIVERSAL_TIME_OFFSET ( 5, 0, .BEHIND. ) ;
#22 = FACE_OUTER_BOUND ( 'NONE', #98, .T. ) ;
#23 = AXIS2_PLACEMENT_3D ( 'NONE', #28, #69, #47 ) ;
#24 = APPROVAL_PERSON_ORGANIZATION ( #150, #139, #72 ) ;
#25 = AXIS2_PLACEMENT_3D ( 'NONE', #142, #111, #129 ) ;
#26 = CYLINDRICAL_SURFACE ( 'NONE', #8, 37.50000000000000711 ) ;
#27 = CC_DESIGN_APPROVAL ( #139, ( #136 ) ) ;
#28 = CARTESIAN_POINT ( 'NONE',  ( -2.000000000000000000, 0.000000000000000000, 0.000000000000000000 ) ) ;
#29 = DATE_AND_TIME ( #85, #128 ) ;
#30 = ORIENTED_EDGE ( 'NONE', *, *, #80, .F. ) ;
#31 = DIRECTION ( 'NONE',  ( 0.000000000000000000, 0.000000000000000000, -1.000000000000000000 ) ) ;
#32 = CARTESIAN_POINT ( 'NONE',  ( 2.000000000000000000, 0.000000000000000000, 37.50000000000000711 ) ) ;
#33 = CALENDAR_DATE ( 2021, 28, 6 ) ;
#34 = PERSON_AND_ORGANIZATION_ROLE ( 'creator' ) ;
#35 = DIRECTION ( 'NONE',  ( 0.000000000000000000, 0.000000000000000000, -1.000000000000000000 ) ) ;
#36 = DIRECTION ( 'NONE',  ( 1.000000000000000000, 0.000000000000000000, 0.000000000000000000 ) ) ;
#37 = ORIENTED_EDGE ( 'NONE', *, *, #91, .T. ) ;
#38 = APPROVAL ( #7, 'UNSPECIFIED' ) ;
#39 = AXIS2_PLACEMENT_3D ( 'NONE', #125, #62, #35 ) ;
#40 = COORDINATED_UNIVERSAL_TIME_OFFSET ( 5, 0, .BEHIND. ) ;
#41 = CIRCLE ( 'NONE', #55, 37.50000000000000711 ) ;
#42 = CC_DESIGN_PERSON_AND_ORGANIZATION_ASSIGNMENT ( #118, #18, ( #115 ) ) ;
#43 = CIRCLE ( 'NONE', #25, 37.50000000000000711 ) ;
#44 = ORIENTED_EDGE ( 'NONE', *, *, #80, .T. ) ;
#45 = EDGE_LOOP ( 'NONE', ( #159, #37, #44, #110 ) ) ;
#46 = MANIFOLD_SOLID_BREP ( 'Boss-Extrude1', #148 ) ;
#47 = DIRECTION ( 'NONE',  ( 0.000000000000000000, 0.000000000000000000, -1.000000000000000000 ) ) ;
#48 = PERSON_AND_ORGANIZATION ( #171, #104 ) ;
#49 =( NAMED_UNIT ( * ) SI_UNIT ( $, .STERADIAN. ) SOLID_ANGLE_UNIT ( ) );
#50 = APPROVAL_ROLE ( '' ) ;
#51 = ORIENTED_EDGE ( 'NONE', *, *, #157, .T. ) ;
#52 = APPLICATION_CONTEXT ( 'configuration controlled 3d designs of mechanical parts and assemblies' ) ;
#53 = SECURITY_CLASSIFICATION_LEVEL ( 'unclassified' ) ;
#54 = COORDINATED_UNIVERSAL_TIME_OFFSET ( 5, 0, .BEHIND. ) ;
#55 = AXIS2_PLACEMENT_3D ( 'NONE', #87, #36, #167 ) ;
#56 = DATE_AND_TIME ( #33, #141 ) ;
#57 = PLANE ( 'NONE',  #23 ) ;
#58 = ADVANCED_FACE ( 'NONE', ( #22 ), #84, .T. ) ;
#59 = LOCAL_TIME ( 11, 58, 18.00000000000000000, #54 ) ;
#60 = EDGE_CURVE ( 'NONE', #83, #106, #41, .T. ) ;
#61 = APPROVAL_STATUS ( 'not_yet_approved' ) ;
#62 = DIRECTION ( 'NONE',  ( 1.000000000000000000, 0.000000000000000000, 0.000000000000000000 ) ) ;
#63 = ORIENTED_EDGE ( 'NONE', *, *, #60, .T. ) ;
#64 = APPLICATION_PROTOCOL_DEFINITION ( 'international standard', 'config_control_design', 1994, #52 ) ;
#65 = AXIS2_PLACEMENT_3D ( 'NONE', #93, #140, #123 ) ;
#66 = FACE_OUTER_BOUND ( 'NONE', #79, .T. ) ;
#67 = ORIENTED_EDGE ( 'NONE', *, *, #137, .T. ) ;
#68 = PRODUCT_DEFINITION ( 'UNKNOWN', '', #115, #105 ) ;
#69 = DIRECTION ( 'NONE',  ( 1.000000000000000000, 0.000000000000000000, 0.000000000000000000 ) ) ;
#70 =( GEOMETRIC_REPRESENTATION_CONTEXT ( 3 ) GLOBAL_UNCERTAINTY_ASSIGNED_CONTEXT ( ( #164 ) ) GLOBAL_UNIT_ASSIGNED_CONTEXT ( ( #153, #99, #49 ) ) REPRESENTATION_CONTEXT ( 'NONE', 'WORKASPACE' ) );
#71 = ORIENTED_EDGE ( 'NONE', *, *, #60, .F. ) ;
#72 = APPROVAL_ROLE ( '' ) ;
#73 = ADVANCED_FACE ( 'NONE', ( #116 ), #26, .T. ) ;
#74 = APPROVAL_PERSON_ORGANIZATION ( #48, #38, #100 ) ;
#75 = MECHANICAL_CONTEXT ( 'NONE', #52, 'mechanical' ) ;
#76 = DIRECTION ( 'NONE',  ( -1.000000000000000000, -0.000000000000000000, -0.000000000000000000 ) ) ;
#77 = APPLICATION_CONTEXT ( 'configuration controlled 3d designs of mechanical parts and assemblies' ) ;
#78 = SHAPE_DEFINITION_REPRESENTATION ( #158, #11 ) ;
#79 = EDGE_LOOP ( 'NONE', ( #173, #30 ) ) ;
#80 = EDGE_CURVE ( 'NONE', #122, #161, #43, .T. ) ;
#81 = PRODUCT_RELATED_PRODUCT_CATEGORY ( 'detail', '', ( #147 ) ) ;
#82 = LINE ( 'NONE', #168, #88 ) ;
#83 = VERTEX_POINT ( 'NONE', #32 ) ;
#84 = PLANE ( 'NONE',  #17 ) ;
#85 = CALENDAR_DATE ( 2021, 28, 6 ) ;
#86 = PERSON_AND_ORGANIZATION ( #171, #104 ) ;
#87 = CARTESIAN_POINT ( 'NONE',  ( 2.000000000000000000, 0.000000000000000000, 0.000000000000000000 ) ) ;
#88 = VECTOR ( 'NONE', #114, 1000.000000000000000 ) ;
#89 = APPROVAL_DATE_TIME ( #160, #139 ) ;
#90 = PERSON_AND_ORGANIZATION ( #171, #104 ) ;
#91 = EDGE_CURVE ( 'NONE', #106, #122, #170, .T. ) ;
#92 = CARTESIAN_POINT ( 'NONE',  ( 2.000000000000000000, 0.000000000000000000, 0.000000000000000000 ) ) ;
#93 = CARTESIAN_POINT ( 'NONE',  ( 2.000000000000000000, 0.000000000000000000, 0.000000000000000000 ) ) ;
#94 = DATE_AND_TIME ( #135, #101 ) ;
#95 = CARTESIAN_POINT ( 'NONE',  ( 2.000000000000000000, 0.000000000000000000, 0.000000000000000000 ) ) ;
#96 = CARTESIAN_POINT ( 'NONE',  ( -2.000000000000000000, 0.000000000000000000, 37.50000000000000711 ) ) ;
#97 = CARTESIAN_POINT ( 'NONE',  ( -2.000000000000000000, 4.592425496802575156E-15, -37.50000000000000711 ) ) ;
#98 = EDGE_LOOP ( 'NONE', ( #63, #2 ) ) ;
#99 =( NAMED_UNIT ( * ) PLANE_ANGLE_UNIT ( ) SI_UNIT ( $, .RADIAN. ) );
#100 = APPROVAL_ROLE ( '' ) ;
#101 = LOCAL_TIME ( 11, 58, 18.00000000000000000, #138 ) ;
#102 = CC_DESIGN_APPROVAL ( #38, ( #115 ) ) ;
#103 = EDGE_LOOP ( 'NONE', ( #19, #71, #51, #67 ) ) ;
#104 = ORGANIZATION ( 'UNSPECIFIED', 'UNSPECIFIED', '' ) ;
#105 = DESIGN_CONTEXT ( 'detailed design', #77, 'design' ) ;
#106 = VERTEX_POINT ( 'NONE', #113 ) ;
#107 = APPROVAL_DATE_TIME ( #29, #144 ) ;
#108 = DIRECTION ( 'NONE',  ( 0.000000000000000000, 0.000000000000000000, -1.000000000000000000 ) ) ;
#109 = DIRECTION ( 'NONE',  ( 1.000000000000000000, 0.000000000000000000, 0.000000000000000000 ) ) ;
#110 = ORIENTED_EDGE ( 'NONE', *, *, #157, .F. ) ;
#111 = DIRECTION ( 'NONE',  ( 1.000000000000000000, 0.000000000000000000, 0.000000000000000000 ) ) ;
#112 = PERSON_AND_ORGANIZATION_ROLE ( 'classification_officer' ) ;
#113 = CARTESIAN_POINT ( 'NONE',  ( 2.000000000000000000, 4.592425496802575156E-15, -37.50000000000000711 ) ) ;
#114 = DIRECTION ( 'NONE',  ( -1.000000000000000000, -0.000000000000000000, -0.000000000000000000 ) ) ;
#115 = PRODUCT_DEFINITION_FORMATION_WITH_SPECIFIED_SOURCE ( 'ANY', '', #147, .NOT_KNOWN. ) ;
#116 = FACE_OUTER_BOUND ( 'NONE', #103, .T. ) ;
#117 = CARTESIAN_POINT ( 'NONE',  ( 2.000000000000000000, 0.000000000000000000, 0.000000000000000000 ) ) ;
#118 = PERSON_AND_ORGANIZATION ( #171, #104 ) ;
#119 = CC_DESIGN_SECURITY_CLASSIFICATION ( #136, ( #115 ) ) ;
#120 = FACE_OUTER_BOUND ( 'NONE', #45, .T. ) ;
#121 = AXIS2_PLACEMENT_3D ( 'NONE', #152, #143, #6 ) ;
#122 = VERTEX_POINT ( 'NONE', #97 ) ;
#123 = DIRECTION ( 'NONE',  ( 0.000000000000000000, 0.000000000000000000, 1.000000000000000000 ) ) ;
#124 = DATE_AND_TIME ( #10, #59 ) ;
#125 = CARTESIAN_POINT ( 'NONE',  ( -2.000000000000000000, 0.000000000000000000, 0.000000000000000000 ) ) ;
#126 = DATE_TIME_ROLE ( 'classification_date' ) ;
#127 = CC_DESIGN_DATE_AND_TIME_ASSIGNMENT ( #94, #169, ( #68 ) ) ;
#128 = LOCAL_TIME ( 11, 58, 18.00000000000000000, #172 ) ;
#129 = DIRECTION ( 'NONE',  ( 0.000000000000000000, 0.000000000000000000, -1.000000000000000000 ) ) ;
#130 = CARTESIAN_POINT ( 'NONE',  ( 2.000000000000000000, 4.592425496802575156E-15, -37.50000000000000711 ) ) ;
#131 = PERSON_AND_ORGANIZATION_ROLE ( 'design_supplier' ) ;
#132 = CC_DESIGN_APPROVAL ( #144, ( #68 ) ) ;
#133 = CALENDAR_DATE ( 2021, 28, 6 ) ;
#134 = CC_DESIGN_PERSON_AND_ORGANIZATION_ASSIGNMENT ( #154, #155, ( #147 ) ) ;
#135 = CALENDAR_DATE ( 2021, 28, 6 ) ;
#136 = SECURITY_CLASSIFICATION ( '', '', #53 ) ;
#137 = EDGE_CURVE ( 'NONE', #161, #122, #146, .T. ) ;
#138 = COORDINATED_UNIVERSAL_TIME_OFFSET ( 5, 0, .BEHIND. ) ;
#139 = APPROVAL ( #61, 'UNSPECIFIED' ) ;
#140 = DIRECTION ( 'NONE',  ( -1.000000000000000000, -0.000000000000000000, -0.000000000000000000 ) ) ;
#141 = LOCAL_TIME ( 11, 58, 18.00000000000000000, #40 ) ;
#142 = CARTESIAN_POINT ( 'NONE',  ( -2.000000000000000000, 0.000000000000000000, 0.000000000000000000 ) ) ;
#143 = DIRECTION ( 'NONE',  ( 0.000000000000000000, 0.000000000000000000, 1.000000000000000000 ) ) ;
#144 = APPROVAL ( #5, 'UNSPECIFIED' ) ;
#145 = VECTOR ( 'NONE', #3, 1000.000000000000000 ) ;
#146 = CIRCLE ( 'NONE', #39, 37.50000000000000711 ) ;
#147 = PRODUCT ( 'Web Model 14967_18345', 'Web Model 14967_18345', '', ( #75 ) ) ;
#148 = CLOSED_SHELL ( 'NONE', ( #15, #73, #58, #1 ) ) ;
#149 = CC_DESIGN_DATE_AND_TIME_ASSIGNMENT ( #124, #126, ( #136 ) ) ;
#150 = PERSON_AND_ORGANIZATION ( #171, #104 ) ;
#151 = DIRECTION ( 'NONE',  ( 0.000000000000000000, 0.000000000000000000, 1.000000000000000000 ) ) ;
#152 = CARTESIAN_POINT ( 'NONE',  ( 0.000000000000000000, 0.000000000000000000, 0.000000000000000000 ) ) ;
#153 =( LENGTH_UNIT ( ) NAMED_UNIT ( * ) SI_UNIT ( .MILLI., .METRE. ) );
#154 = PERSON_AND_ORGANIZATION ( #171, #104 ) ;
#155 = PERSON_AND_ORGANIZATION_ROLE ( 'design_owner' ) ;
#156 = APPROVAL_DATE_TIME ( #56, #38 ) ;
#157 = EDGE_CURVE ( 'NONE', #83, #161, #82, .T. ) ;
#158 = PRODUCT_DEFINITION_SHAPE ( 'NONE', 'NONE',  #68 ) ;
#159 = ORIENTED_EDGE ( 'NONE', *, *, #14, .F. ) ;
#160 = DATE_AND_TIME ( #133, #162 ) ;
#161 = VERTEX_POINT ( 'NONE', #96 ) ;
#162 = LOCAL_TIME ( 11, 58, 18.00000000000000000, #21 ) ;
#163 = AXIS2_PLACEMENT_3D ( 'NONE', #95, #109, #31 ) ;
#164 = UNCERTAINTY_MEASURE_WITH_UNIT (LENGTH_MEASURE( 1.000000000000000082E-05 ), #153, 'distance_accuracy_value', 'NONE');
#165 = APPLICATION_PROTOCOL_DEFINITION ( 'international standard', 'config_control_design', 1994, #77 ) ;
#166 = PERSON_AND_ORGANIZATION ( #171, #104 ) ;
#167 = DIRECTION ( 'NONE',  ( 0.000000000000000000, 0.000000000000000000, -1.000000000000000000 ) ) ;
#168 = CARTESIAN_POINT ( 'NONE',  ( 2.000000000000000000, 0.000000000000000000, 37.50000000000000711 ) ) ;
#169 = DATE_TIME_ROLE ( 'creation_date' ) ;
#170 = LINE ( 'NONE', #130, #145 ) ;
#171 = PERSON ( 'UNSPECIFIED', 'UNSPECIFIED', 'UNSPECIFIED', ('UNSPECIFIED'), ('UNSPECIFIED'), ('UNSPECIFIED') ) ;
#172 = COORDINATED_UNIVERSAL_TIME_OFFSET ( 5, 0, .BEHIND. ) ;
#173 = ORIENTED_EDGE ( 'NONE', *, *, #137, .F. ) ;
#174 = CC_DESIGN_PERSON_AND_ORGANIZATION_ASSIGNMENT ( #86, #131, ( #115 ) ) ;
#175 = CYLINDRICAL_SURFACE ( 'NONE', #65, 37.50000000000000711 ) ;
ENDSEC;
END-ISO-10303-21;
