ISO-10303-21;
HEADER;
FILE_DESCRIPTION (( 'STEP AP214' ),
    '1' );
FILE_NAME ('19311-E0W.STEP',
    '2009-12-21T17:07:09',
    ( ' ' ),
    ( ' ' ),
    'SwSTEP 2.0',
    'SolidWorks 2009',
    '' );
FILE_SCHEMA (( 'AUTOMOTIVE_DESIGN' ));
ENDSEC;

DATA;
#1 =( NAMED_UNIT ( * ) SI_UNIT ( $, .STERADIAN. ) SOLID_ANGLE_UNIT ( ) );
#2 =( NAMED_UNIT ( * ) PLANE_ANGLE_UNIT ( ) SI_UNIT ( $, .RADIAN. ) );
#3 =( GEOMETRIC_REPRESENTATION_CONTEXT ( 3 ) GLOBAL_UNCERTAINTY_ASSIGNED_CONTEXT ( ( #32 ) ) GLOBAL_UNIT_ASSIGNED_CONTEXT ( ( #98, #2, #1 ) ) REPRESENTATION_CONTEXT ( 'NONE', 'WORKASPACE' ) );
#4 =( NAMED_UNIT ( * ) SI_UNIT ( $, .STERADIAN. ) SOLID_ANGLE_UNIT ( ) );
#5 = ORIENTED_EDGE ( 'NONE', *, *, #22, .F. ) ;
#6 = ORIENTED_EDGE ( 'NONE', *, *, #7, .F. ) ;
#7 = EDGE_CURVE ( 'NONE', #45, #36, #31, .T. ) ;
#8 = EDGE_LOOP ( 'NONE', ( #51, #56, #20, #43 ) ) ;
#9 = ORIENTED_EDGE ( 'NONE', *, *, #11, .F. ) ;
#10 = VERTEX_POINT ( 'NONE', #65 ) ;
#11 = EDGE_CURVE ( 'NONE', #45, #47, #116, .T. ) ;
#12 = EDGE_LOOP ( 'NONE', ( #33, #34, #6, #35, #50 ) ) ;
#13 = EDGE_LOOP ( 'NONE', ( #14, #23, #24, #9 ) ) ;
#14 = ORIENTED_EDGE ( 'NONE', *, *, #7, .T. ) ;
#15 = ORIENTED_EDGE ( 'NONE', *, *, #16, .F. ) ;
#16 = EDGE_CURVE ( 'NONE', #18, #36, #63, .T. ) ;
#17 = EDGE_CURVE ( 'NONE', #10, #18, #67, .T. ) ;
#18 = VERTEX_POINT ( 'NONE', #121 ) ;
#19 = ORIENTED_EDGE ( 'NONE', *, *, #21, .T. ) ;
#20 = ORIENTED_EDGE ( 'NONE', *, *, #54, .T. ) ;
#21 = EDGE_CURVE ( 'NONE', #10, #55, #61, .T. ) ;
#22 = EDGE_CURVE ( 'NONE', #36, #57, #71, .T. ) ;
#23 = ORIENTED_EDGE ( 'NONE', *, *, #22, .T. ) ;
#24 = ORIENTED_EDGE ( 'NONE', *, *, #37, .T. ) ;
#25 = EDGE_LOOP ( 'NONE', ( #44, #40 ) ) ;
#26 =( NAMED_UNIT ( * ) PLANE_ANGLE_UNIT ( ) SI_UNIT ( $, .RADIAN. ) );
#27 = CARTESIAN_POINT ( 'NONE',  ( 0.0000000000000000000, 0.0000000000000000000, 0.2920213713770011300 ) ) ;
#28 = DIRECTION ( 'NONE',  ( 1.000000000000000000, 0.0000000000000000000, 0.0000000000000000000 ) ) ;
#29 = DIRECTION ( 'NONE',  ( -0.0000000000000000000, -0.0000000000000000000, 1.000000000000000000 ) ) ;
#30 = AXIS2_PLACEMENT_3D ( 'NONE', #27, #29, #28 ) ;
#31 = CIRCLE ( 'NONE', #30, 15.00000000000000200 ) ;
#32 = UNCERTAINTY_MEASURE_WITH_UNIT (LENGTH_MEASURE( 1.000000000000000100E-005 ), #98, 'distance_accuracy_value', 'NONE');
#33 = ORIENTED_EDGE ( 'NONE', *, *, #17, .T. ) ;
#34 = ORIENTED_EDGE ( 'NONE', *, *, #16, .T. ) ;
#35 = ORIENTED_EDGE ( 'NONE', *, *, #54, .F. ) ;
#36 = VERTEX_POINT ( 'NONE', #109 ) ;
#37 = EDGE_CURVE ( 'NONE', #57, #47, #89, .T. ) ;
#38 = ORIENTED_EDGE ( 'NONE', *, *, #59, .T. ) ;
#39 = ADVANCED_FACE ( 'NONE', ( #62 ), #113, .F. ) ;
#40 = ORIENTED_EDGE ( 'NONE', *, *, #59, .F. ) ;
#41 = ADVANCED_FACE ( 'NONE', ( #115 ), #139, .T. ) ;
#42 = ADVANCED_FACE ( 'NONE', ( #141 ), #170, .T. ) ;
#43 = ORIENTED_EDGE ( 'NONE', *, *, #11, .T. ) ;
#44 = ORIENTED_EDGE ( 'NONE', *, *, #17, .F. ) ;
#45 = VERTEX_POINT ( 'NONE', #158 ) ;
#46 = MANIFOLD_SOLID_BREP ( 'NONE', #52 ) ;
#47 = VERTEX_POINT ( 'NONE', #152 ) ;
#48 = ADVANCED_FACE ( 'NONE', ( #151 ), #203, .T. ) ;
#49 = ADVANCED_FACE ( 'NONE', ( #226 ), #210, .T. ) ;
#50 = ORIENTED_EDGE ( 'NONE', *, *, #21, .F. ) ;
#51 = ORIENTED_EDGE ( 'NONE', *, *, #37, .F. ) ;
#52 = CLOSED_SHELL ( 'NONE', ( #42, #48, #41, #49, #39 ) ) ;
#53 = EDGE_CURVE ( 'NONE', #57, #55, #184, .T. ) ;
#54 = EDGE_CURVE ( 'NONE', #55, #45, #202, .T. ) ;
#55 = VERTEX_POINT ( 'NONE', #229 ) ;
#56 = ORIENTED_EDGE ( 'NONE', *, *, #53, .T. ) ;
#57 = VERTEX_POINT ( 'NONE', #212 ) ;
#58 = EDGE_LOOP ( 'NONE', ( #15, #38, #19, #60, #5 ) ) ;
#59 = EDGE_CURVE ( 'NONE', #18, #10, #211, .T. ) ;
#60 = ORIENTED_EDGE ( 'NONE', *, *, #53, .F. ) ;
#61 = LINE ( 'NONE', #83, #70 ) ;
#62 = FACE_OUTER_BOUND ( 'NONE', #25, .T. ) ;
#63 = LINE ( 'NONE', #106, #118 ) ;
#64 =( NAMED_UNIT ( * ) PLANE_ANGLE_UNIT ( ) SI_UNIT ( $, .RADIAN. ) );
#65 = CARTESIAN_POINT ( 'NONE',  ( 15.00000000000000000, 0.0000000000000000000, -1.389999999999999700 ) ) ;
#66 = AXIS2_PLACEMENT_3D ( 'NONE', #124, #123, #122 ) ;
#67 = CIRCLE ( 'NONE', #66, 15.00000000000000000 ) ;
#68 =( GEOMETRIC_REPRESENTATION_CONTEXT ( 3 ) GLOBAL_UNCERTAINTY_ASSIGNED_CONTEXT ( ( #78 ) ) GLOBAL_UNIT_ASSIGNED_CONTEXT ( ( #101, #64, #79 ) ) REPRESENTATION_CONTEXT ( 'NONE', 'WORKASPACE' ) );
#69 = DIRECTION ( 'NONE',  ( -0.0000000000000000000, -0.0000000000000000000, 1.000000000000000000 ) ) ;
#70 = VECTOR ( 'NONE', #69, 1000.000000000000000 ) ;
#71 = CIRCLE ( 'NONE', #108, 15.00000000000000200 ) ;
#72 = FILL_AREA_STYLE ('',( #73 ) ) ;
#73 = FILL_AREA_STYLE_COLOUR ( '', #74 ) ;
#74 = COLOUR_RGB ( '',0.9568627450980391500, 0.9490196078431372100, 0.9607843137254902200 ) ;
#75 = DIRECTION ( 'NONE',  ( -1.224606353822377300E-016, -1.000000000000000000, 0.0000000000000000000 ) ) ;
#76 = DIRECTION ( 'NONE',  ( 0.0000000000000000000, 0.0000000000000000000, -1.000000000000000000 ) ) ;
#77 = DIRECTION ( 'NONE',  ( -0.0000000000000000000, -0.0000000000000000000, 1.000000000000000000 ) ) ;
#78 = UNCERTAINTY_MEASURE_WITH_UNIT (LENGTH_MEASURE( 1.000000000000000100E-005 ), #101, 'distance_accuracy_value', 'NONE');
#79 =( NAMED_UNIT ( * ) SI_UNIT ( $, .STERADIAN. ) SOLID_ANGLE_UNIT ( ) );
#80 = SURFACE_STYLE_USAGE ( .BOTH. , #81 ) ;
#81 = SURFACE_SIDE_STYLE ('',( #82 ) ) ;
#82 = SURFACE_STYLE_FILL_AREA ( #72 ) ;
#83 = CARTESIAN_POINT ( 'NONE',  ( 15.00000000000000000, 0.0000000000000000000, 4.308132045400366600 ) ) ;
#84 = DIRECTION ( 'NONE',  ( 1.000000000000000000, 0.0000000000000000000, 0.0000000000000000000 ) ) ;
#85 = DIRECTION ( 'NONE',  ( -0.0000000000000000000, -0.0000000000000000000, 1.000000000000000000 ) ) ;
#86 = DIRECTION ( 'NONE',  ( -1.000000000000000000, 1.224606353822377300E-016, 0.0000000000000000000 ) ) ;
#87 = CARTESIAN_POINT ( 'NONE',  ( 0.0000000000000000000, 0.0000000000000000000, -101.6199999999999900 ) ) ;
#88 = AXIS2_PLACEMENT_3D ( 'NONE', #87, #86, #75 ) ;
#89 = CIRCLE ( 'NONE', #88, 103.0099999999999900 ) ;
#90 = STYLED_ITEM ( 'NONE', ( #91 ), #41 ) ;
#91 = PRESENTATION_STYLE_ASSIGNMENT (( #92 ) ) ;
#92 = SURFACE_STYLE_USAGE ( .BOTH. , #93 ) ;
#93 = SURFACE_SIDE_STYLE ('',( #94 ) ) ;
#94 = SURFACE_STYLE_FILL_AREA ( #95 ) ;
#95 = FILL_AREA_STYLE ('',( #96 ) ) ;
#96 = FILL_AREA_STYLE_COLOUR ( '', #114 ) ;
#97 = DIRECTION ( 'NONE',  ( 1.000000000000000000, 0.0000000000000000000, 0.0000000000000000000 ) ) ;
#98 =( LENGTH_UNIT ( ) NAMED_UNIT ( * ) SI_UNIT ( .MILLI., .METRE. ) );
#99 = MECHANICAL_DESIGN_GEOMETRIC_PRESENTATION_REPRESENTATION (  '', ( #90 ), #3 ) ;
#100 = PRESENTATION_LAYER_ASSIGNMENT (  '', '', ( #90 ) ) ;
#101 =( LENGTH_UNIT ( ) NAMED_UNIT ( * ) SI_UNIT ( .MILLI., .METRE. ) );
#102 = MECHANICAL_DESIGN_GEOMETRIC_PRESENTATION_REPRESENTATION (  '', ( #104 ), #68 ) ;
#103 = PRESENTATION_LAYER_ASSIGNMENT (  '', '', ( #104 ) ) ;
#104 = STYLED_ITEM ( 'NONE', ( #105 ), #39 ) ;
#105 = PRESENTATION_STYLE_ASSIGNMENT (( #80 ) ) ;
#106 = CARTESIAN_POINT ( 'NONE',  ( -15.00000000000000000, 1.836909530733565900E-015, 4.308132045400366600 ) ) ;
#107 = CARTESIAN_POINT ( 'NONE',  ( 0.0000000000000000000, 0.0000000000000000000, 0.2920213713770011300 ) ) ;
#108 = AXIS2_PLACEMENT_3D ( 'NONE', #107, #85, #84 ) ;
#109 = CARTESIAN_POINT ( 'NONE',  ( -15.00000000000000400, 1.836909530733566300E-015, 0.2920213713770011300 ) ) ;
#110 = DIRECTION ( 'NONE',  ( 0.0000000000000000000, -0.0000000000000000000, 1.000000000000000000 ) ) ;
#111 = CARTESIAN_POINT ( 'NONE',  ( 0.0000000000000000000, 5.106777152444462700E-016, -1.389999999999999700 ) ) ;
#112 = AXIS2_PLACEMENT_3D ( 'NONE', #111, #110, #97 ) ;
#113 = PLANE ( 'NONE',  #112 ) ;
#114 = COLOUR_RGB ( '',0.9568627450980391500, 0.9490196078431372100, 0.9607843137254902200 ) ;
#115 = FACE_OUTER_BOUND ( 'NONE', #8, .T. ) ;
#116 = CIRCLE ( 'NONE', #119, 103.0099999999999900 ) ;
#117 = DIRECTION ( 'NONE',  ( 1.000000000000000000, 0.0000000000000000000, 0.0000000000000000000 ) ) ;
#118 = VECTOR ( 'NONE', #77, 1000.000000000000000 ) ;
#119 = AXIS2_PLACEMENT_3D ( 'NONE', #120, #117, #76 ) ;
#120 = CARTESIAN_POINT ( 'NONE',  ( 0.0000000000000000000, 0.0000000000000000000, -101.6199999999999900 ) ) ;
#121 = CARTESIAN_POINT ( 'NONE',  ( -15.00000000000000000, 1.836909530733565900E-015, -1.389999999999999700 ) ) ;
#122 = DIRECTION ( 'NONE',  ( 1.000000000000000000, 0.0000000000000000000, 0.0000000000000000000 ) ) ;
#123 = DIRECTION ( 'NONE',  ( -0.0000000000000000000, -0.0000000000000000000, 1.000000000000000000 ) ) ;
#124 = CARTESIAN_POINT ( 'NONE',  ( 0.0000000000000000000, 0.0000000000000000000, -1.389999999999999700 ) ) ;
#125 =( NAMED_UNIT ( * ) SI_UNIT ( $, .STERADIAN. ) SOLID_ANGLE_UNIT ( ) );
#126 = STYLED_ITEM ( 'NONE', ( #136 ), #42 ) ;
#127 = PRESENTATION_LAYER_ASSIGNMENT (  '', '', ( #128 ) ) ;
#128 = STYLED_ITEM ( 'NONE', ( #129 ), #48 ) ;
#129 = PRESENTATION_STYLE_ASSIGNMENT (( #130 ) ) ;
#130 = SURFACE_STYLE_USAGE ( .BOTH. , #131 ) ;
#131 = SURFACE_SIDE_STYLE ('',( #132 ) ) ;
#132 = SURFACE_STYLE_FILL_AREA ( #133 ) ;
#133 = FILL_AREA_STYLE ('',( #134 ) ) ;
#134 = FILL_AREA_STYLE_COLOUR ( '', #150 ) ;
#135 = SURFACE_SIDE_STYLE ('',( #171 ) ) ;
#136 = PRESENTATION_STYLE_ASSIGNMENT (( #175 ) ) ;
#137 = FILL_AREA_STYLE ('',( #160 ) ) ;
#138 = CARTESIAN_POINT ( 'NONE',  ( 0.0000000000000000000, 0.0000000000000000000, -101.6199999999999900 ) ) ;
#139 = SPHERICAL_SURFACE ( 'NONE', #142, 103.0099999999999900 ) ;
#140 = MECHANICAL_DESIGN_GEOMETRIC_PRESENTATION_REPRESENTATION (  '', ( #126 ), #172 ) ;
#141 = FACE_OUTER_BOUND ( 'NONE', #12, .T. ) ;
#142 = AXIS2_PLACEMENT_3D ( 'NONE', #138, #161, #149 ) ;
#143 = UNCERTAINTY_MEASURE_WITH_UNIT (LENGTH_MEASURE( 1.000000000000000100E-005 ), #173, 'distance_accuracy_value', 'NONE');
#144 =( NAMED_UNIT ( * ) SI_UNIT ( $, .STERADIAN. ) SOLID_ANGLE_UNIT ( ) );
#145 = UNCERTAINTY_MEASURE_WITH_UNIT (LENGTH_MEASURE( 1.000000000000000100E-005 ), #148, 'distance_accuracy_value', 'NONE');
#146 = COLOUR_RGB ( '',0.9568627450980391500, 0.9490196078431372100, 0.9607843137254902200 ) ;
#147 = PRESENTATION_LAYER_ASSIGNMENT (  '', '', ( #126 ) ) ;
#148 =( LENGTH_UNIT ( ) NAMED_UNIT ( * ) SI_UNIT ( .MILLI., .METRE. ) );
#149 = DIRECTION ( 'NONE',  ( 0.0000000000000000000, 1.000000000000000000, 0.0000000000000000000 ) ) ;
#150 = COLOUR_RGB ( '',0.9568627450980391500, 0.9490196078431372100, 0.9607843137254902200 ) ;
#151 = FACE_OUTER_BOUND ( 'NONE', #13, .T. ) ;
#152 = CARTESIAN_POINT ( 'NONE',  ( 0.0000000000000000000, 6.307335025362153200E-015, 1.390000000000002300 ) ) ;
#153 =( GEOMETRIC_REPRESENTATION_CONTEXT ( 3 ) GLOBAL_UNCERTAINTY_ASSIGNED_CONTEXT ( ( #143 ) ) GLOBAL_UNIT_ASSIGNED_CONTEXT ( ( #173, #159, #144 ) ) REPRESENTATION_CONTEXT ( 'NONE', 'WORKASPACE' ) );
#154 =( NAMED_UNIT ( * ) PLANE_ANGLE_UNIT ( ) SI_UNIT ( $, .RADIAN. ) );
#155 =( LENGTH_UNIT ( ) NAMED_UNIT ( * ) SI_UNIT ( .MILLI., .METRE. ) );
#156 = MECHANICAL_DESIGN_GEOMETRIC_PRESENTATION_REPRESENTATION (  '', ( #128 ), #216 ) ;
#157 = COLOUR_RGB ( '',0.7960784313725489700, 0.8235294117647058400, 0.9372549019607843100 ) ;
#158 = CARTESIAN_POINT ( 'NONE',  ( 0.0000000000000000000, 14.99999999999996100, 0.2920213713769946300 ) ) ;
#159 =( NAMED_UNIT ( * ) PLANE_ANGLE_UNIT ( ) SI_UNIT ( $, .RADIAN. ) );
#160 = FILL_AREA_STYLE_COLOUR ( '', #146 ) ;
#161 = DIRECTION ( 'NONE',  ( -1.000000000000000000, 0.0000000000000000000, 0.0000000000000000000 ) ) ;
#162 =( NAMED_UNIT ( * ) PLANE_ANGLE_UNIT ( ) SI_UNIT ( $, .RADIAN. ) );
#163 = PRESENTATION_LAYER_ASSIGNMENT (  '', '', ( #164 ) ) ;
#164 = STYLED_ITEM ( 'NONE', ( #165 ), #46 ) ;
#165 = PRESENTATION_STYLE_ASSIGNMENT (( #166 ) ) ;
#166 = SURFACE_STYLE_USAGE ( .BOTH. , #167 ) ;
#167 = SURFACE_SIDE_STYLE ('',( #168 ) ) ;
#168 = SURFACE_STYLE_FILL_AREA ( #169 ) ;
#169 = FILL_AREA_STYLE ('',( #176 ) ) ;
#170 = CYLINDRICAL_SURFACE ( 'NONE', #180, 15.00000000000000000 ) ;
#171 = SURFACE_STYLE_FILL_AREA ( #137 ) ;
#172 =( GEOMETRIC_REPRESENTATION_CONTEXT ( 3 ) GLOBAL_UNCERTAINTY_ASSIGNED_CONTEXT ( ( #145 ) ) GLOBAL_UNIT_ASSIGNED_CONTEXT ( ( #148, #162, #125 ) ) REPRESENTATION_CONTEXT ( 'NONE', 'WORKASPACE' ) );
#173 =( LENGTH_UNIT ( ) NAMED_UNIT ( * ) SI_UNIT ( .MILLI., .METRE. ) );
#174 = MECHANICAL_DESIGN_GEOMETRIC_PRESENTATION_REPRESENTATION (  '', ( #164 ), #153 ) ;
#175 = SURFACE_STYLE_USAGE ( .BOTH. , #135 ) ;
#176 = FILL_AREA_STYLE_COLOUR ( '', #157 ) ;
#177 = DIRECTION ( 'NONE',  ( 1.000000000000000000, 0.0000000000000000000, 0.0000000000000000000 ) ) ;
#178 = DIRECTION ( 'NONE',  ( -0.0000000000000000000, -0.0000000000000000000, 1.000000000000000000 ) ) ;
#179 = CARTESIAN_POINT ( 'NONE',  ( 0.0000000000000000000, 0.0000000000000000000, 4.308132045400366600 ) ) ;
#180 = AXIS2_PLACEMENT_3D ( 'NONE', #179, #178, #177 ) ;
#181 =( NAMED_UNIT ( * ) SI_UNIT ( $, .STERADIAN. ) SOLID_ANGLE_UNIT ( ) );
#182 =( NAMED_UNIT ( * ) PLANE_ANGLE_UNIT ( ) SI_UNIT ( $, .RADIAN. ) );
#183 =( GEOMETRIC_REPRESENTATION_CONTEXT ( 3 ) GLOBAL_UNCERTAINTY_ASSIGNED_CONTEXT ( ( #218 ) ) GLOBAL_UNIT_ASSIGNED_CONTEXT ( ( #190, #235, #191 ) ) REPRESENTATION_CONTEXT ( 'NONE', 'WORKASPACE' ) );
#184 = CIRCLE ( 'NONE', #205, 15.00000000000000200 ) ;
#185 = DIRECTION ( 'NONE',  ( 1.000000000000000000, 0.0000000000000000000, 0.0000000000000000000 ) ) ;
#186 = STYLED_ITEM ( 'NONE', ( #187 ), #49 ) ;
#187 = PRESENTATION_STYLE_ASSIGNMENT (( #192 ) ) ;
#188 = CARTESIAN_POINT ( 'NONE',  ( 0.0000000000000000000, 0.0000000000000000000, 4.308132045400366600 ) ) ;
#189 = DIRECTION ( 'NONE',  ( -0.0000000000000000000, -0.0000000000000000000, 1.000000000000000000 ) ) ;
#190 =( LENGTH_UNIT ( ) NAMED_UNIT ( * ) SI_UNIT ( .MILLI., .METRE. ) );
#191 =( NAMED_UNIT ( * ) SI_UNIT ( $, .STERADIAN. ) SOLID_ANGLE_UNIT ( ) );
#192 = SURFACE_STYLE_USAGE ( .BOTH. , #234 ) ;
#193 = DIRECTION ( 'NONE',  ( 0.0000000000000000000, 1.000000000000000000, 0.0000000000000000000 ) ) ;
#194 = ADVANCED_BREP_SHAPE_REPRESENTATION ( '19311-E0W', ( #46, #261 ), #195 ) ;
#195 =( GEOMETRIC_REPRESENTATION_CONTEXT ( 3 ) GLOBAL_UNCERTAINTY_ASSIGNED_CONTEXT ( ( #213 ) ) GLOBAL_UNIT_ASSIGNED_CONTEXT ( ( #208, #182, #181 ) ) REPRESENTATION_CONTEXT ( 'NONE', 'WORKASPACE' ) );
#196 = UNCERTAINTY_MEASURE_WITH_UNIT (LENGTH_MEASURE( 1.000000000000000100E-005 ), #155, 'distance_accuracy_value', 'NONE');
#197 = FILL_AREA_STYLE_COLOUR ( '', #233 ) ;
#198 = DIRECTION ( 'NONE',  ( 1.000000000000000000, 0.0000000000000000000, 0.0000000000000000000 ) ) ;
#199 = DIRECTION ( 'NONE',  ( -0.0000000000000000000, -0.0000000000000000000, 1.000000000000000000 ) ) ;
#200 = CARTESIAN_POINT ( 'NONE',  ( 0.0000000000000000000, 0.0000000000000000000, -1.389999999999999700 ) ) ;
#201 = AXIS2_PLACEMENT_3D ( 'NONE', #200, #199, #198 ) ;
#202 = CIRCLE ( 'NONE', #232, 15.00000000000000200 ) ;
#203 = SPHERICAL_SURFACE ( 'NONE', #214, 103.0099999999999900 ) ;
#204 = CARTESIAN_POINT ( 'NONE',  ( 0.0000000000000000000, 0.0000000000000000000, 0.2920213713770011300 ) ) ;
#205 = AXIS2_PLACEMENT_3D ( 'NONE', #204, #242, #241 ) ;
#206 = CARTESIAN_POINT ( 'NONE',  ( 0.0000000000000000000, 0.0000000000000000000, 0.2920213713770011300 ) ) ;
#207 = CARTESIAN_POINT ( 'NONE',  ( 0.0000000000000000000, 0.0000000000000000000, -101.6199999999999900 ) ) ;
#208 =( LENGTH_UNIT ( ) NAMED_UNIT ( * ) SI_UNIT ( .MILLI., .METRE. ) );
#209 = PRESENTATION_LAYER_ASSIGNMENT (  '', '', ( #186 ) ) ;
#210 = CYLINDRICAL_SURFACE ( 'NONE', #215, 15.00000000000000000 ) ;
#211 = CIRCLE ( 'NONE', #201, 15.00000000000000000 ) ;
#212 = CARTESIAN_POINT ( 'NONE',  ( -1.836909530733561500E-015, -14.99999999999996100, 0.2920213713769946300 ) ) ;
#213 = UNCERTAINTY_MEASURE_WITH_UNIT (LENGTH_MEASURE( 1.000000000000000100E-005 ), #208, 'distance_accuracy_value', 'NONE');
#214 = AXIS2_PLACEMENT_3D ( 'NONE', #207, #217, #193 ) ;
#215 = AXIS2_PLACEMENT_3D ( 'NONE', #188, #189, #185 ) ;
#216 =( GEOMETRIC_REPRESENTATION_CONTEXT ( 3 ) GLOBAL_UNCERTAINTY_ASSIGNED_CONTEXT ( ( #196 ) ) GLOBAL_UNIT_ASSIGNED_CONTEXT ( ( #155, #154, #4 ) ) REPRESENTATION_CONTEXT ( 'NONE', 'WORKASPACE' ) );
#217 = DIRECTION ( 'NONE',  ( -1.000000000000000000, 0.0000000000000000000, 0.0000000000000000000 ) ) ;
#218 = UNCERTAINTY_MEASURE_WITH_UNIT (LENGTH_MEASURE( 1.000000000000000100E-005 ), #190, 'distance_accuracy_value', 'NONE');
#219 = PRESENTATION_STYLE_ASSIGNMENT (( #220 ) ) ;
#220 = SURFACE_STYLE_USAGE ( .BOTH. , #221 ) ;
#221 = SURFACE_SIDE_STYLE ('',( #222 ) ) ;
#222 = SURFACE_STYLE_FILL_AREA ( #223 ) ;
#223 = FILL_AREA_STYLE ('',( #224 ) ) ;
#224 = FILL_AREA_STYLE_COLOUR ( '', #225 ) ;
#225 = COLOUR_RGB ( '',0.7960784313725489700, 0.8235294117647058400, 0.9372549019607843100 ) ;
#226 = FACE_OUTER_BOUND ( 'NONE', #58, .T. ) ;
#227 = FILL_AREA_STYLE ('',( #197 ) ) ;
#228 = MECHANICAL_DESIGN_GEOMETRIC_PRESENTATION_REPRESENTATION (  '', ( #186 ), #183 ) ;
#229 = CARTESIAN_POINT ( 'NONE',  ( 15.00000000000000400, 0.0000000000000000000, 0.2920213713770011300 ) ) ;
#230 = DIRECTION ( 'NONE',  ( 1.000000000000000000, 0.0000000000000000000, 0.0000000000000000000 ) ) ;
#231 = DIRECTION ( 'NONE',  ( -0.0000000000000000000, -0.0000000000000000000, 1.000000000000000000 ) ) ;
#232 = AXIS2_PLACEMENT_3D ( 'NONE', #206, #231, #230 ) ;
#233 = COLOUR_RGB ( '',0.9568627450980391500, 0.9490196078431372100, 0.9607843137254902200 ) ;
#234 = SURFACE_SIDE_STYLE ('',( #236 ) ) ;
#235 =( NAMED_UNIT ( * ) PLANE_ANGLE_UNIT ( ) SI_UNIT ( $, .RADIAN. ) );
#236 = SURFACE_STYLE_FILL_AREA ( #227 ) ;
#237 =( LENGTH_UNIT ( ) NAMED_UNIT ( * ) SI_UNIT ( .MILLI., .METRE. ) );
#238 = MECHANICAL_DESIGN_GEOMETRIC_PRESENTATION_REPRESENTATION (  '', ( #240 ), #247 ) ;
#239 = PRESENTATION_LAYER_ASSIGNMENT (  '', '', ( #240 ) ) ;
#240 = STYLED_ITEM ( 'NONE', ( #219 ), #194 ) ;
#241 = DIRECTION ( 'NONE',  ( 1.000000000000000000, 0.0000000000000000000, 0.0000000000000000000 ) ) ;
#242 = DIRECTION ( 'NONE',  ( -0.0000000000000000000, -0.0000000000000000000, 1.000000000000000000 ) ) ;
#243 = DIRECTION ( 'NONE',  ( 1.000000000000000000, 0.0000000000000000000, 0.0000000000000000000 ) ) ;
#244 = DIRECTION ( 'NONE',  ( 0.0000000000000000000, 0.0000000000000000000, 1.000000000000000000 ) ) ;
#245 =( NAMED_UNIT ( * ) SI_UNIT ( $, .STERADIAN. ) SOLID_ANGLE_UNIT ( ) );
#246 = UNCERTAINTY_MEASURE_WITH_UNIT (LENGTH_MEASURE( 1.000000000000000100E-005 ), #237, 'distance_accuracy_value', 'NONE');
#247 =( GEOMETRIC_REPRESENTATION_CONTEXT ( 3 ) GLOBAL_UNCERTAINTY_ASSIGNED_CONTEXT ( ( #246 ) ) GLOBAL_UNIT_ASSIGNED_CONTEXT ( ( #237, #26, #245 ) ) REPRESENTATION_CONTEXT ( 'NONE', 'WORKASPACE' ) );
#248 = APPLICATION_PROTOCOL_DEFINITION ( 'draft international standard', 'automotive_design', 1998, #260 ) ;
#249 = CARTESIAN_POINT ( 'NONE',  ( 0.0000000000000000000, 0.0000000000000000000, 0.0000000000000000000 ) ) ;
#250 = PRODUCT_DEFINITION ( 'UNKNOWN', '', #258, #259 ) ;
#251 = APPLICATION_PROTOCOL_DEFINITION ( 'draft international standard', 'automotive_design', 1998, #252 ) ;
#252 = APPLICATION_CONTEXT ( 'automotive_design' ) ;
#253 = SHAPE_DEFINITION_REPRESENTATION ( #256, #194 ) ;
#254 = PRODUCT ( '19311-E0W', '19311-E0W', '', ( #255 ) ) ;
#255 = PRODUCT_CONTEXT ( 'NONE', #260, 'mechanical' ) ;
#256 = PRODUCT_DEFINITION_SHAPE ( 'NONE', 'NONE',  #250 ) ;
#257 = PRODUCT_RELATED_PRODUCT_CATEGORY ( 'part', '', ( #254 ) ) ;
#258 = PRODUCT_DEFINITION_FORMATION_WITH_SPECIFIED_SOURCE ( 'ANY', '', #254, .NOT_KNOWN. ) ;
#259 = PRODUCT_DEFINITION_CONTEXT ( 'detailed design', #252, 'design' ) ;
#260 = APPLICATION_CONTEXT ( 'automotive_design' ) ;
#261 = AXIS2_PLACEMENT_3D ( 'NONE', #249, #244, #243 ) ;
ENDSEC;
END-ISO-10303-21;
