ISO-10303-21;
HEADER;
FILE_DESCRIPTION (( 'STEP AP203' ),
    '1' );
FILE_NAME ('Web Model 46098_46098.step',
    '2017-03-01T20:51:28',
    ( '' ),
    ( '' ),
    'SwSTEP 2.0',
    'SolidWorks 2016',
    '' );
FILE_SCHEMA (( 'CONFIG_CONTROL_DESIGN' ));
ENDSEC;

DATA;
#1 = CALENDAR_DATE ( 2017, 1, 3 ) ;
#2 = EDGE_CURVE ( 'NONE', #55, #149, #165, .T. ) ;
#3 = LOCAL_TIME ( 15, 51, 28.00000000000000000, #36 ) ;
#4 = CC_DESIGN_PERSON_AND_ORGANIZATION_ASSIGNMENT ( #150, #114, ( #21 ) ) ;
#5 = PERSON_AND_ORGANIZATION_ROLE ( 'creator' ) ;
#6 = CARTESIAN_POINT ( 'NONE',  ( 0.0000000000000000000, 0.0000000000000000000, 3.000000000000000000 ) ) ;
#7 = DIRECTION ( 'NONE',  ( -0.0000000000000000000, -0.0000000000000000000, -1.000000000000000000 ) ) ;
#8 = APPLICATION_CONTEXT ( 'configuration controlled 3d designs of mechanical parts and assemblies' ) ;
#9 = ADVANCED_FACE ( 'NONE', ( #25 ), #119, .T. ) ;
#10 = ORGANIZATION ( 'UNSPECIFIED', 'UNSPECIFIED', '' ) ;
#11 = EDGE_CURVE ( 'NONE', #15, #136, #89, .T. ) ;
#12 = COORDINATED_UNIVERSAL_TIME_OFFSET ( 5, 0, .BEHIND. ) ;
#13 = ORIENTED_EDGE ( 'NONE', *, *, #42, .F. ) ;
#14 = PRODUCT_DEFINITION ( 'UNKNOWN', '', #60, #174 ) ;
#15 = VERTEX_POINT ( 'NONE', #158 ) ;
#16 = SECURITY_CLASSIFICATION_LEVEL ( 'unclassified' ) ;
#17 = ORIENTED_EDGE ( 'NONE', *, *, #169, .T. ) ;
#18 = DIRECTION ( 'NONE',  ( 1.000000000000000000, 0.0000000000000000000, 0.0000000000000000000 ) ) ;
#19 = DIRECTION ( 'NONE',  ( 0.0000000000000000000, 0.0000000000000000000, 1.000000000000000000 ) ) ;
#20 = MECHANICAL_CONTEXT ( 'NONE', #8, 'mechanical' ) ;
#21 = PRODUCT ( 'Web Model 46098_46098', 'Web Model 46098_46098', '', ( #20 ) ) ;
#22 = CIRCLE ( 'NONE', #81, 12.70000000000000500 ) ;
#23 = CARTESIAN_POINT ( 'NONE',  ( 0.0000000000000000000, 0.0000000000000000000, 3.000000000000000000 ) ) ;
#24 = APPROVAL ( #47, 'UNSPECIFIED' ) ;
#25 = FACE_OUTER_BOUND ( 'NONE', #68, .T. ) ;
#26 = PERSON_AND_ORGANIZATION ( #64, #10 ) ;
#27 = CYLINDRICAL_SURFACE ( 'NONE', #141, 12.70000000000000500 ) ;
#28 = EDGE_LOOP ( 'NONE', ( #175, #30 ) ) ;
#29 = PERSON_AND_ORGANIZATION ( #64, #10 ) ;
#30 = ORIENTED_EDGE ( 'NONE', *, *, #11, .T. ) ;
#31 = CC_DESIGN_APPROVAL ( #24, ( #14 ) ) ;
#32 = DATE_TIME_ROLE ( 'classification_date' ) ;
#33 = DIRECTION ( 'NONE',  ( -0.0000000000000000000, -0.0000000000000000000, -1.000000000000000000 ) ) ;
#34 = APPLICATION_CONTEXT ( 'configuration controlled 3d designs of mechanical parts and assemblies' ) ;
#35 = MANIFOLD_SOLID_BREP ( 'Boss-Extrude1', #88 ) ;
#36 = COORDINATED_UNIVERSAL_TIME_OFFSET ( 5, 0, .BEHIND. ) ;
#37 = AXIS2_PLACEMENT_3D ( 'NONE', #123, #152, #133 ) ;
#38 = CC_DESIGN_PERSON_AND_ORGANIZATION_ASSIGNMENT ( #126, #62, ( #14 ) ) ;
#39 = DIRECTION ( 'NONE',  ( 1.000000000000000000, 0.0000000000000000000, 0.0000000000000000000 ) ) ;
#40 = CARTESIAN_POINT ( 'NONE',  ( 0.0000000000000000000, 0.0000000000000000000, 3.000000000000000000 ) ) ;
#41 = UNCERTAINTY_MEASURE_WITH_UNIT (LENGTH_MEASURE( 1.000000000000000100E-005 ), #144, 'distance_accuracy_value', 'NONE');
#42 = EDGE_CURVE ( 'NONE', #149, #55, #139, .T. ) ;
#43 = DATE_AND_TIME ( #1, #147 ) ;
#44 = APPROVAL_ROLE ( '' ) ;
#45 = DIRECTION ( 'NONE',  ( 1.000000000000000000, 0.0000000000000000000, -0.0000000000000000000 ) ) ;
#46 = DIRECTION ( 'NONE',  ( 0.0000000000000000000, 0.0000000000000000000, 1.000000000000000000 ) ) ;
#47 = APPROVAL_STATUS ( 'not_yet_approved' ) ;
#48 = FACE_OUTER_BOUND ( 'NONE', #28, .T. ) ;
#49 = AXIS2_PLACEMENT_3D ( 'NONE', #164, #77, #39 ) ;
#50 = CC_DESIGN_DATE_AND_TIME_ASSIGNMENT ( #43, #148, ( #14 ) ) ;
#51 = DATE_AND_TIME ( #129, #159 ) ;
#52 = APPROVAL_DATE_TIME ( #160, #135 ) ;
#53 = FACE_OUTER_BOUND ( 'NONE', #157, .T. ) ;
#54 = APPROVAL_PERSON_ORGANIZATION ( #66, #70, #80 ) ;
#55 = VERTEX_POINT ( 'NONE', #120 ) ;
#56 = DIRECTION ( 'NONE',  ( -0.0000000000000000000, -0.0000000000000000000, -1.000000000000000000 ) ) ;
#57 = DIRECTION ( 'NONE',  ( 0.0000000000000000000, 0.0000000000000000000, 1.000000000000000000 ) ) ;
#58 = ORIENTED_EDGE ( 'NONE', *, *, #86, .T. ) ;
#59 = AXIS2_PLACEMENT_3D ( 'NONE', #23, #101, #138 ) ;
#60 = PRODUCT_DEFINITION_FORMATION_WITH_SPECIFIED_SOURCE ( 'ANY', '', #21, .NOT_KNOWN. ) ;
#61 =( NAMED_UNIT ( * ) PLANE_ANGLE_UNIT ( ) SI_UNIT ( $, .RADIAN. ) );
#62 = PERSON_AND_ORGANIZATION_ROLE ( 'creator' ) ;
#63 = LINE ( 'NONE', #153, #125 ) ;
#64 = PERSON ( 'UNSPECIFIED', 'UNSPECIFIED', 'UNSPECIFIED', ('UNSPECIFIED'), ('UNSPECIFIED'), ('UNSPECIFIED') ) ;
#65 = ADVANCED_FACE ( 'NONE', ( #48 ), #87, .T. ) ;
#66 = PERSON_AND_ORGANIZATION ( #64, #10 ) ;
#67 = SHAPE_DEFINITION_REPRESENTATION ( #71, #103 ) ;
#68 = EDGE_LOOP ( 'NONE', ( #116, #58, #107, #163 ) ) ;
#69 = AXIS2_PLACEMENT_3D ( 'NONE', #40, #56, #106 ) ;
#70 = APPROVAL ( #166, 'UNSPECIFIED' ) ;
#71 = PRODUCT_DEFINITION_SHAPE ( 'NONE', 'NONE',  #14 ) ;
#72 = EDGE_CURVE ( 'NONE', #136, #15, #22, .T. ) ;
#73 = CARTESIAN_POINT ( 'NONE',  ( 0.0000000000000000000, 0.0000000000000000000, 0.0000000000000000000 ) ) ;
#74 = CARTESIAN_POINT ( 'NONE',  ( -12.70000000000000500, 0.0000000000000000000, 0.0000000000000000000 ) ) ;
#75 = APPROVAL_PERSON_ORGANIZATION ( #108, #24, #145 ) ;
#76 = CC_DESIGN_APPROVAL ( #70, ( #60 ) ) ;
#77 = DIRECTION ( 'NONE',  ( 0.0000000000000000000, 0.0000000000000000000, 1.000000000000000000 ) ) ;
#78 = CALENDAR_DATE ( 2017, 1, 3 ) ;
#79 = ORIENTED_EDGE ( 'NONE', *, *, #86, .F. ) ;
#80 = APPROVAL_ROLE ( '' ) ;
#81 = AXIS2_PLACEMENT_3D ( 'NONE', #6, #95, #18 ) ;
#82 = CC_DESIGN_PERSON_AND_ORGANIZATION_ASSIGNMENT ( #29, #5, ( #60 ) ) ;
#83 = DIRECTION ( 'NONE',  ( -0.0000000000000000000, -0.0000000000000000000, -1.000000000000000000 ) ) ;
#84 = COORDINATED_UNIVERSAL_TIME_OFFSET ( 5, 0, .BEHIND. ) ;
#85 = ORIENTED_EDGE ( 'NONE', *, *, #42, .T. ) ;
#86 = EDGE_CURVE ( 'NONE', #15, #55, #63, .T. ) ;
#87 = PLANE ( 'NONE',  #90 ) ;
#88 = CLOSED_SHELL ( 'NONE', ( #9, #173, #65, #115 ) ) ;
#89 = CIRCLE ( 'NONE', #59, 12.70000000000000500 ) ;
#90 = AXIS2_PLACEMENT_3D ( 'NONE', #105, #57, #45 ) ;
#91 = CC_DESIGN_PERSON_AND_ORGANIZATION_ASSIGNMENT ( #100, #94, ( #60 ) ) ;
#92 = APPROVAL_PERSON_ORGANIZATION ( #26, #135, #44 ) ;
#93 = ORIENTED_EDGE ( 'NONE', *, *, #2, .F. ) ;
#94 = PERSON_AND_ORGANIZATION_ROLE ( 'design_supplier' ) ;
#95 = DIRECTION ( 'NONE',  ( 0.0000000000000000000, 0.0000000000000000000, 1.000000000000000000 ) ) ;
#96 = COORDINATED_UNIVERSAL_TIME_OFFSET ( 5, 0, .BEHIND. ) ;
#97 = DIRECTION ( 'NONE',  ( -1.000000000000000000, 0.0000000000000000000, 0.0000000000000000000 ) ) ;
#98 = FACE_OUTER_BOUND ( 'NONE', #131, .T. ) ;
#99 = DIRECTION ( 'NONE',  ( 1.000000000000000000, 0.0000000000000000000, 0.0000000000000000000 ) ) ;
#100 = PERSON_AND_ORGANIZATION ( #64, #10 ) ;
#101 = DIRECTION ( 'NONE',  ( 0.0000000000000000000, 0.0000000000000000000, 1.000000000000000000 ) ) ;
#102 = SECURITY_CLASSIFICATION ( '', '', #16 ) ;
#103 = ADVANCED_BREP_SHAPE_REPRESENTATION ( 'Web Model 46098_46098', ( #35, #167 ), #134 ) ;
#104 = DATE_AND_TIME ( #146, #3 ) ;
#105 = CARTESIAN_POINT ( 'NONE',  ( 0.0000000000000000000, 0.0000000000000000000, 3.000000000000000000 ) ) ;
#106 = DIRECTION ( 'NONE',  ( -1.000000000000000000, 0.0000000000000000000, 0.0000000000000000000 ) ) ;
#107 = ORIENTED_EDGE ( 'NONE', *, *, #2, .T. ) ;
#108 = PERSON_AND_ORGANIZATION ( #64, #10 ) ;
#109 = PERSON_AND_ORGANIZATION_ROLE ( 'classification_officer' ) ;
#110 = COORDINATED_UNIVERSAL_TIME_OFFSET ( 5, 0, .BEHIND. ) ;
#111 = CC_DESIGN_PERSON_AND_ORGANIZATION_ASSIGNMENT ( #137, #109, ( #102 ) ) ;
#112 = CARTESIAN_POINT ( 'NONE',  ( 0.0000000000000000000, 0.0000000000000000000, 0.0000000000000000000 ) ) ;
#113 = DATE_AND_TIME ( #151, #172 ) ;
#114 = PERSON_AND_ORGANIZATION_ROLE ( 'design_owner' ) ;
#115 = ADVANCED_FACE ( 'NONE', ( #53 ), #128, .F. ) ;
#116 = ORIENTED_EDGE ( 'NONE', *, *, #11, .F. ) ;
#117 = LOCAL_TIME ( 15, 51, 28.00000000000000000, #96 ) ;
#118 = CC_DESIGN_APPROVAL ( #135, ( #102 ) ) ;
#119 = CYLINDRICAL_SURFACE ( 'NONE', #69, 12.70000000000000500 ) ;
#120 = CARTESIAN_POINT ( 'NONE',  ( 12.70000000000000500, 1.555301434917139000E-015, 0.0000000000000000000 ) ) ;
#121 = AXIS2_PLACEMENT_3D ( 'NONE', #73, #46, #143 ) ;
#122 = CC_DESIGN_DATE_AND_TIME_ASSIGNMENT ( #51, #32, ( #102 ) ) ;
#123 = CARTESIAN_POINT ( 'NONE',  ( 0.0000000000000000000, 0.0000000000000000000, 0.0000000000000000000 ) ) ;
#124 = VECTOR ( 'NONE', #7, 1000.000000000000000 ) ;
#125 = VECTOR ( 'NONE', #83, 1000.000000000000000 ) ;
#126 = PERSON_AND_ORGANIZATION ( #64, #10 ) ;
#127 = APPROVAL_STATUS ( 'not_yet_approved' ) ;
#128 = PLANE ( 'NONE',  #121 ) ;
#129 = CALENDAR_DATE ( 2017, 1, 3 ) ;
#130 = APPLICATION_PROTOCOL_DEFINITION ( 'international standard', 'config_control_design', 1994, #34 ) ;
#131 = EDGE_LOOP ( 'NONE', ( #79, #171, #17, #85 ) ) ;
#132 = CC_DESIGN_SECURITY_CLASSIFICATION ( #102, ( #60 ) ) ;
#133 = DIRECTION ( 'NONE',  ( 1.000000000000000000, 0.0000000000000000000, 0.0000000000000000000 ) ) ;
#134 =( GEOMETRIC_REPRESENTATION_CONTEXT ( 3 ) GLOBAL_UNCERTAINTY_ASSIGNED_CONTEXT ( ( #41 ) ) GLOBAL_UNIT_ASSIGNED_CONTEXT ( ( #144, #61, #156 ) ) REPRESENTATION_CONTEXT ( 'NONE', 'WORKASPACE' ) );
#135 = APPROVAL ( #127, 'UNSPECIFIED' ) ;
#136 = VERTEX_POINT ( 'NONE', #142 ) ;
#137 = PERSON_AND_ORGANIZATION ( #64, #10 ) ;
#138 = DIRECTION ( 'NONE',  ( 1.000000000000000000, 0.0000000000000000000, 0.0000000000000000000 ) ) ;
#139 = CIRCLE ( 'NONE', #49, 12.70000000000000500 ) ;
#140 = PRODUCT_RELATED_PRODUCT_CATEGORY ( 'detail', '', ( #21 ) ) ;
#141 = AXIS2_PLACEMENT_3D ( 'NONE', #168, #33, #97 ) ;
#142 = CARTESIAN_POINT ( 'NONE',  ( -12.70000000000000500, 0.0000000000000000000, 3.000000000000000000 ) ) ;
#143 = DIRECTION ( 'NONE',  ( 1.000000000000000000, 0.0000000000000000000, -0.0000000000000000000 ) ) ;
#144 =( LENGTH_UNIT ( ) NAMED_UNIT ( * ) SI_UNIT ( .MILLI., .METRE. ) );
#145 = APPROVAL_ROLE ( '' ) ;
#146 = CALENDAR_DATE ( 2017, 1, 3 ) ;
#147 = LOCAL_TIME ( 15, 51, 28.00000000000000000, #110 ) ;
#148 = DATE_TIME_ROLE ( 'creation_date' ) ;
#149 = VERTEX_POINT ( 'NONE', #74 ) ;
#150 = PERSON_AND_ORGANIZATION ( #64, #10 ) ;
#151 = CALENDAR_DATE ( 2017, 1, 3 ) ;
#152 = DIRECTION ( 'NONE',  ( 0.0000000000000000000, 0.0000000000000000000, 1.000000000000000000 ) ) ;
#153 = CARTESIAN_POINT ( 'NONE',  ( 12.70000000000000500, 1.555301434917139000E-015, 3.000000000000000000 ) ) ;
#154 = CARTESIAN_POINT ( 'NONE',  ( -12.70000000000000500, 0.0000000000000000000, 3.000000000000000000 ) ) ;
#155 = APPROVAL_DATE_TIME ( #113, #70 ) ;
#156 =( NAMED_UNIT ( * ) SI_UNIT ( $, .STERADIAN. ) SOLID_ANGLE_UNIT ( ) );
#157 = EDGE_LOOP ( 'NONE', ( #13, #93 ) ) ;
#158 = CARTESIAN_POINT ( 'NONE',  ( 12.70000000000000500, 1.555301434917139000E-015, 3.000000000000000000 ) ) ;
#159 = LOCAL_TIME ( 15, 51, 28.00000000000000000, #84 ) ;
#160 = DATE_AND_TIME ( #78, #117 ) ;
#161 = LINE ( 'NONE', #154, #124 ) ;
#162 = APPROVAL_DATE_TIME ( #104, #24 ) ;
#163 = ORIENTED_EDGE ( 'NONE', *, *, #169, .F. ) ;
#164 = CARTESIAN_POINT ( 'NONE',  ( 0.0000000000000000000, 0.0000000000000000000, 0.0000000000000000000 ) ) ;
#165 = CIRCLE ( 'NONE', #37, 12.70000000000000500 ) ;
#166 = APPROVAL_STATUS ( 'not_yet_approved' ) ;
#167 = AXIS2_PLACEMENT_3D ( 'NONE', #112, #19, #99 ) ;
#168 = CARTESIAN_POINT ( 'NONE',  ( 0.0000000000000000000, 0.0000000000000000000, 3.000000000000000000 ) ) ;
#169 = EDGE_CURVE ( 'NONE', #136, #149, #161, .T. ) ;
#170 = APPLICATION_PROTOCOL_DEFINITION ( 'international standard', 'config_control_design', 1994, #8 ) ;
#171 = ORIENTED_EDGE ( 'NONE', *, *, #72, .F. ) ;
#172 = LOCAL_TIME ( 15, 51, 28.00000000000000000, #12 ) ;
#173 = ADVANCED_FACE ( 'NONE', ( #98 ), #27, .T. ) ;
#174 = DESIGN_CONTEXT ( 'detailed design', #34, 'design' ) ;
#175 = ORIENTED_EDGE ( 'NONE', *, *, #72, .T. ) ;
ENDSEC;
END-ISO-10303-21;
