ISO-10303-21;
HEADER;
FILE_DESCRIPTION (( 'STEP AP203' ),
    '1' );
FILE_NAME ('Web Model 43215_43224.step',
    '2018-03-12T19:17:16',
    ( '' ),
    ( '' ),
    'SwSTEP 2.0',
    'SolidWorks 2016',
    '' );
FILE_SCHEMA (( 'CONFIG_CONTROL_DESIGN' ));
ENDSEC;

DATA;
#1 = VERTEX_POINT ( 'NONE', #36 ) ;
#2 = APPROVAL ( #46, 'UNSPECIFIED' ) ;
#3 = PLANE ( 'NONE',  #218 ) ;
#4 = DIRECTION ( 'NONE',  ( 0.0000000000000000000, 5.551115123125782700E-016, -1.000000000000000000 ) ) ;
#5 = DIRECTION ( 'NONE',  ( 0.0000000000000000000, 0.0000000000000000000, -1.000000000000000000 ) ) ;
#6 = APPROVAL_ROLE ( '' ) ;
#7 = APPROVAL_STATUS ( 'not_yet_approved' ) ;
#8 = APPROVAL_DATE_TIME ( #100, #174 ) ;
#9 = PERSON_AND_ORGANIZATION ( #127, #93 ) ;
#10 = ORIENTED_EDGE ( 'NONE', *, *, #54, .F. ) ;
#11 = EDGE_CURVE ( 'NONE', #216, #141, #172, .T. ) ;
#12 = DESIGN_CONTEXT ( 'detailed design', #119, 'design' ) ;
#13 = ORIENTED_EDGE ( 'NONE', *, *, #154, .F. ) ;
#14 = CC_DESIGN_PERSON_AND_ORGANIZATION_ASSIGNMENT ( #81, #66, ( #164 ) ) ;
#15 = AXIS2_PLACEMENT_3D ( 'NONE', #201, #139, #104 ) ;
#16 = CARTESIAN_POINT ( 'NONE',  ( -4.750000000000000000, -6.250000000000007100, -12.49999999999999600 ) ) ;
#17 = CALENDAR_DATE ( 2018, 12, 3 ) ;
#18 = FACE_OUTER_BOUND ( 'NONE', #211, .T. ) ;
#19 = CARTESIAN_POINT ( 'NONE',  ( -4.750000000000000000, 6.250000000000010700, -12.50000000000000200 ) ) ;
#20 = ORIENTED_EDGE ( 'NONE', *, *, #99, .T. ) ;
#21 = DIRECTION ( 'NONE',  ( -0.0000000000000000000, 4.163336342344331100E-016, 1.000000000000000000 ) ) ;
#22 = DIRECTION ( 'NONE',  ( 0.0000000000000000000, 0.0000000000000000000, 1.000000000000000000 ) ) ;
#23 = PERSON_AND_ORGANIZATION_ROLE ( 'creator' ) ;
#24 =( GEOMETRIC_REPRESENTATION_CONTEXT ( 3 ) GLOBAL_UNCERTAINTY_ASSIGNED_CONTEXT ( ( #136 ) ) GLOBAL_UNIT_ASSIGNED_CONTEXT ( ( #83, #86, #231 ) ) REPRESENTATION_CONTEXT ( 'NONE', 'WORKASPACE' ) );
#25 = SECURITY_CLASSIFICATION_LEVEL ( 'unclassified' ) ;
#26 = VERTEX_POINT ( 'NONE', #57 ) ;
#27 = EDGE_CURVE ( 'NONE', #216, #110, #209, .T. ) ;
#28 = EDGE_LOOP ( 'NONE', ( #207, #234, #123, #53 ) ) ;
#29 = PRODUCT_DEFINITION_SHAPE ( 'NONE', 'NONE',  #124 ) ;
#30 = LINE ( 'NONE', #226, #70 ) ;
#31 = PLANE ( 'NONE',  #151 ) ;
#32 = CARTESIAN_POINT ( 'NONE',  ( 4.750000000000000000, 6.249999999999996400, 12.49999999999999800 ) ) ;
#34 = ORIENTED_EDGE ( 'NONE', *, *, #75, .T. ) ;
#33 = CC_DESIGN_PERSON_AND_ORGANIZATION_ASSIGNMENT ( #227, #48, ( #71 ) ) ;
#35 = DIRECTION ( 'NONE',  ( 0.0000000000000000000, 1.000000000000000000, -4.163336342344331100E-016 ) ) ;
#36 = CARTESIAN_POINT ( 'NONE',  ( -4.750000000000000000, 6.249999999999996400, 12.49999999999999800 ) ) ;
#37 = EDGE_CURVE ( 'NONE', #168, #89, #40, .T. ) ;
#38 = ADVANCED_FACE ( 'NONE', ( #215 ), #31, .T. ) ;
#39 = CALENDAR_DATE ( 2018, 12, 3 ) ;
#40 = LINE ( 'NONE', #16, #182 ) ;
#41 = ORIENTED_EDGE ( 'NONE', *, *, #111, .T. ) ;
#42 = CARTESIAN_POINT ( 'NONE',  ( 4.750000000000000000, 6.250000000000010700, -12.50000000000000200 ) ) ;
#43 = CARTESIAN_POINT ( 'NONE',  ( 4.750000000000000000, -6.250000000000007100, 12.49999999999999600 ) ) ;
#44 = AXIS2_PLACEMENT_3D ( 'NONE', #175, #21, #114 ) ;
#45 = PLANE ( 'NONE',  #183 ) ;
#46 = APPROVAL_STATUS ( 'not_yet_approved' ) ;
#47 = DATE_AND_TIME ( #17, #101 ) ;
#48 = PERSON_AND_ORGANIZATION_ROLE ( 'classification_officer' ) ;
#49 = EDGE_CURVE ( 'NONE', #1, #141, #122, .T. ) ;
#50 = ORIENTED_EDGE ( 'NONE', *, *, #195, .T. ) ;
#51 = COORDINATED_UNIVERSAL_TIME_OFFSET ( 5, 0, .BEHIND. ) ;
#52 = CC_DESIGN_DATE_AND_TIME_ASSIGNMENT ( #222, #180, ( #124 ) ) ;
#53 = ORIENTED_EDGE ( 'NONE', *, *, #111, .F. ) ;
#54 = EDGE_CURVE ( 'NONE', #26, #216, #97, .T. ) ;
#55 = DIRECTION ( 'NONE',  ( -1.000000000000000000, -0.0000000000000000000, -0.0000000000000000000 ) ) ;
#56 = COORDINATED_UNIVERSAL_TIME_OFFSET ( 5, 0, .BEHIND. ) ;
#57 = CARTESIAN_POINT ( 'NONE',  ( 4.750000000000000000, 6.249999999999996400, 12.49999999999999800 ) ) ;
#59 = ORIENTED_EDGE ( 'NONE', *, *, #75, .F. ) ;
#58 = CC_DESIGN_APPROVAL ( #130, ( #124 ) ) ;
#60 = CARTESIAN_POINT ( 'NONE',  ( 4.750000000000000000, -6.250000000000007100, 12.49999999999999600 ) ) ;
#61 = DIRECTION ( 'NONE',  ( -0.0000000000000000000, -5.551115123125782700E-016, 1.000000000000000000 ) ) ;
#62 = CARTESIAN_POINT ( 'NONE',  ( -4.750000000000000000, -6.250000000000007100, -12.49999999999999600 ) ) ;
#63 = LOCAL_TIME ( 15, 17, 16.00000000000000000, #117 ) ;
#64 = APPROVAL_ROLE ( '' ) ;
#65 = ADVANCED_FACE ( 'NONE', ( #18 ), #189, .F. ) ;
#66 = PERSON_AND_ORGANIZATION_ROLE ( 'creator' ) ;
#67 = CC_DESIGN_SECURITY_CLASSIFICATION ( #71, ( #164 ) ) ;
#68 = ADVANCED_FACE ( 'NONE', ( #224 ), #3, .F. ) ;
#69 = PERSON_AND_ORGANIZATION ( #127, #93 ) ;
#70 = VECTOR ( 'NONE', #203, 1000.000000000000000 ) ;
#71 = SECURITY_CLASSIFICATION ( '', '', #25 ) ;
#72 = EDGE_LOOP ( 'NONE', ( #143, #73, #10, #34 ) ) ;
#73 = ORIENTED_EDGE ( 'NONE', *, *, #11, .F. ) ;
#74 = CLOSED_SHELL ( 'NONE', ( #68, #157, #65, #179, #199, #38 ) ) ;
#75 = EDGE_CURVE ( 'NONE', #26, #1, #128, .T. ) ;
#76 = CALENDAR_DATE ( 2018, 12, 3 ) ;
#77 = CARTESIAN_POINT ( 'NONE',  ( 4.750000000000000000, -6.250000000000007100, 12.49999999999999600 ) ) ;
#78 = VECTOR ( 'NONE', #228, 1000.000000000000000 ) ;
#79 = DIRECTION ( 'NONE',  ( -1.000000000000000000, 0.0000000000000000000, 0.0000000000000000000 ) ) ;
#80 = ORIENTED_EDGE ( 'NONE', *, *, #154, .T. ) ;
#81 = PERSON_AND_ORGANIZATION ( #127, #93 ) ;
#82 = DIRECTION ( 'NONE',  ( 0.0000000000000000000, 1.000000000000000000, -4.163336342344331100E-016 ) ) ;
#83 =( LENGTH_UNIT ( ) NAMED_UNIT ( * ) SI_UNIT ( .MILLI., .METRE. ) );
#84 = CARTESIAN_POINT ( 'NONE',  ( 4.750000000000000000, -6.250000000000007100, -12.49999999999999600 ) ) ;
#85 = CC_DESIGN_APPROVAL ( #2, ( #164 ) ) ;
#86 =( NAMED_UNIT ( * ) PLANE_ANGLE_UNIT ( ) SI_UNIT ( $, .RADIAN. ) );
#87 = PERSON_AND_ORGANIZATION_ROLE ( 'design_supplier' ) ;
#88 = EDGE_LOOP ( 'NONE', ( #147, #115, #149, #50 ) ) ;
#89 = VERTEX_POINT ( 'NONE', #19 ) ;
#90 = APPROVAL_ROLE ( '' ) ;
#91 = PRODUCT_RELATED_PRODUCT_CATEGORY ( 'detail', '', ( #113 ) ) ;
#92 = APPROVAL_DATE_TIME ( #152, #130 ) ;
#93 = ORGANIZATION ( 'UNSPECIFIED', 'UNSPECIFIED', '' ) ;
#94 = FACE_OUTER_BOUND ( 'NONE', #153, .T. ) ;
#95 = VECTOR ( 'NONE', #131, 1000.000000000000000 ) ;
#96 = CC_DESIGN_APPROVAL ( #174, ( #71 ) ) ;
#97 = LINE ( 'NONE', #60, #190 ) ;
#98 = ORIENTED_EDGE ( 'NONE', *, *, #237, .F. ) ;
#99 = EDGE_CURVE ( 'NONE', #89, #1, #30, .T. ) ;
#100 = DATE_AND_TIME ( #76, #63 ) ;
#101 = LOCAL_TIME ( 15, 17, 16.00000000000000000, #121 ) ;
#102 = CARTESIAN_POINT ( 'NONE',  ( 4.750000000000000000, 0.0000000000000000000, 0.0000000000000000000 ) ) ;
#103 = PLANE ( 'NONE',  #15 ) ;
#104 = DIRECTION ( 'NONE',  ( 0.0000000000000000000, -0.0000000000000000000, 1.000000000000000000 ) ) ;
#105 = ORIENTED_EDGE ( 'NONE', *, *, #195, .F. ) ;
#106 = DIRECTION ( 'NONE',  ( 1.000000000000000000, 0.0000000000000000000, 0.0000000000000000000 ) ) ;
#107 = CARTESIAN_POINT ( 'NONE',  ( 4.750000000000000000, -6.250000000000007100, -12.49999999999999600 ) ) ;
#108 = LOCAL_TIME ( 15, 17, 16.00000000000000000, #56 ) ;
#109 = ADVANCED_BREP_SHAPE_REPRESENTATION ( 'Web Model 43215_43224', ( #185, #221 ), #24 ) ;
#110 = VERTEX_POINT ( 'NONE', #177 ) ;
#111 = EDGE_CURVE ( 'NONE', #141, #168, #186, .T. ) ;
#112 = PERSON_AND_ORGANIZATION ( #127, #93 ) ;
#113 = PRODUCT ( 'Web Model 43215_43224', 'Web Model 43215_43224', '', ( #158 ) ) ;
#114 = DIRECTION ( 'NONE',  ( 0.0000000000000000000, -1.000000000000000000, 4.163336342344331100E-016 ) ) ;
#115 = ORIENTED_EDGE ( 'NONE', *, *, #27, .T. ) ;
#116 = CARTESIAN_POINT ( 'NONE',  ( 4.750000000000000000, -6.250000000000007100, 12.49999999999999600 ) ) ;
#117 = COORDINATED_UNIVERSAL_TIME_OFFSET ( 5, 0, .BEHIND. ) ;
#118 = CARTESIAN_POINT ( 'NONE',  ( 4.750000000000000000, 6.249999999999996400, 12.49999999999999800 ) ) ;
#119 = APPLICATION_CONTEXT ( 'configuration controlled 3d designs of mechanical parts and assemblies' ) ;
#120 = APPLICATION_PROTOCOL_DEFINITION ( 'international standard', 'config_control_design', 1994, #119 ) ;
#121 = COORDINATED_UNIVERSAL_TIME_OFFSET ( 5, 0, .BEHIND. ) ;
#122 = LINE ( 'NONE', #150, #148 ) ;
#123 = ORIENTED_EDGE ( 'NONE', *, *, #37, .F. ) ;
#124 = PRODUCT_DEFINITION ( 'UNKNOWN', '', #164, #12 ) ;
#125 = VECTOR ( 'NONE', #55, 1000.000000000000000 ) ;
#126 = VECTOR ( 'NONE', #5, 1000.000000000000000 ) ;
#127 = PERSON ( 'UNSPECIFIED', 'UNSPECIFIED', 'UNSPECIFIED', ('UNSPECIFIED'), ('UNSPECIFIED'), ('UNSPECIFIED') ) ;
#128 = LINE ( 'NONE', #32, #125 ) ;
#129 = DIRECTION ( 'NONE',  ( 0.0000000000000000000, 0.0000000000000000000, 1.000000000000000000 ) ) ;
#130 = APPROVAL ( #7, 'UNSPECIFIED' ) ;
#131 = DIRECTION ( 'NONE',  ( -1.000000000000000000, -0.0000000000000000000, -0.0000000000000000000 ) ) ;
#132 = VERTEX_POINT ( 'NONE', #217 ) ;
#133 = DIRECTION ( 'NONE',  ( 0.0000000000000000000, 1.387778780781445200E-016, -1.000000000000000000 ) ) ;
#134 = DIRECTION ( 'NONE',  ( 0.0000000000000000000, 0.0000000000000000000, -1.000000000000000000 ) ) ;
#135 = APPLICATION_CONTEXT ( 'configuration controlled 3d designs of mechanical parts and assemblies' ) ;
#136 = UNCERTAINTY_MEASURE_WITH_UNIT (LENGTH_MEASURE( 1.000000000000000100E-005 ), #83, 'distance_accuracy_value', 'NONE');
#137 = CARTESIAN_POINT ( 'NONE',  ( 0.0000000000000000000, 0.0000000000000000000, 0.0000000000000000000 ) ) ;
#138 = SHAPE_DEFINITION_REPRESENTATION ( #29, #109 ) ;
#139 = DIRECTION ( 'NONE',  ( -0.0000000000000000000, 1.000000000000000000, 0.0000000000000000000 ) ) ;
#140 = LINE ( 'NONE', #42, #78 ) ;
#141 = VERTEX_POINT ( 'NONE', #181 ) ;
#142 = LINE ( 'NONE', #118, #223 ) ;
#143 = ORIENTED_EDGE ( 'NONE', *, *, #49, .T. ) ;
#144 = DATE_TIME_ROLE ( 'classification_date' ) ;
#145 = LINE ( 'NONE', #84, #230 ) ;
#147 = ORIENTED_EDGE ( 'NONE', *, *, #54, .T. ) ;
#146 = CC_DESIGN_DATE_AND_TIME_ASSIGNMENT ( #47, #144, ( #71 ) ) ;
#148 = VECTOR ( 'NONE', #173, 1000.000000000000000 ) ;
#149 = ORIENTED_EDGE ( 'NONE', *, *, #237, .T. ) ;
#150 = CARTESIAN_POINT ( 'NONE',  ( -4.750000000000000000, -6.250000000000007100, 12.49999999999999600 ) ) ;
#151 = AXIS2_PLACEMENT_3D ( 'NONE', #192, #79, #129 ) ;
#152 = DATE_AND_TIME ( #39, #167 ) ;
#153 = EDGE_LOOP ( 'NONE', ( #41, #191, #202, #162 ) ) ;
#155 = ORIENTED_EDGE ( 'NONE', *, *, #37, .T. ) ;
#154 = EDGE_CURVE ( 'NONE', #132, #89, #140, .T. ) ;
#156 = PLANE ( 'NONE',  #169 ) ;
#157 = ADVANCED_FACE ( 'NONE', ( #94 ), #103, .F. ) ;
#158 = MECHANICAL_CONTEXT ( 'NONE', #135, 'mechanical' ) ;
#159 = CALENDAR_DATE ( 2018, 12, 3 ) ;
#160 = DIRECTION ( 'NONE',  ( 0.0000000000000000000, 0.0000000000000000000, 1.000000000000000000 ) ) ;
#161 = VECTOR ( 'NONE', #134, 1000.000000000000000 ) ;
#162 = ORIENTED_EDGE ( 'NONE', *, *, #11, .T. ) ;
#163 = CARTESIAN_POINT ( 'NONE',  ( 4.750000000000000000, 6.249999999999996400, 12.49999999999999800 ) ) ;
#164 = PRODUCT_DEFINITION_FORMATION_WITH_SPECIFIED_SOURCE ( 'ANY', '', #113, .NOT_KNOWN. ) ;
#165 = PERSON_AND_ORGANIZATION_ROLE ( 'design_owner' ) ;
#166 = CC_DESIGN_PERSON_AND_ORGANIZATION_ASSIGNMENT ( #9, #87, ( #164 ) ) ;
#167 = LOCAL_TIME ( 15, 17, 16.00000000000000000, #236 ) ;
#168 = VERTEX_POINT ( 'NONE', #62 ) ;
#169 = AXIS2_PLACEMENT_3D ( 'NONE', #163, #198, #4 ) ;
#170 = VECTOR ( 'NONE', #197, 1000.000000000000000 ) ;
#171 = EDGE_CURVE ( 'NONE', #110, #168, #206, .T. ) ;
#172 = LINE ( 'NONE', #194, #95 ) ;
#173 = DIRECTION ( 'NONE',  ( -0.0000000000000000000, -1.000000000000000000, -1.387778780781445200E-016 ) ) ;
#174 = APPROVAL ( #204, 'UNSPECIFIED' ) ;
#175 = CARTESIAN_POINT ( 'NONE',  ( 4.750000000000000000, -6.250000000000007100, -12.49999999999999600 ) ) ;
#176 = APPROVAL_DATE_TIME ( #205, #2 ) ;
#177 = CARTESIAN_POINT ( 'NONE',  ( 4.750000000000000000, -6.250000000000007100, -12.49999999999999600 ) ) ;
#178 = APPROVAL_PERSON_ORGANIZATION ( #184, #174, #90 ) ;
#179 = ADVANCED_FACE ( 'NONE', ( #213 ), #156, .F. ) ;
#180 = DATE_TIME_ROLE ( 'creation_date' ) ;
#181 = CARTESIAN_POINT ( 'NONE',  ( -4.750000000000000000, -6.250000000000007100, 12.49999999999999600 ) ) ;
#182 = VECTOR ( 'NONE', #35, 1000.000000000000000 ) ;
#183 = AXIS2_PLACEMENT_3D ( 'NONE', #102, #196, #160 ) ;
#184 = PERSON_AND_ORGANIZATION ( #127, #93 ) ;
#185 = MANIFOLD_SOLID_BREP ( 'Boss-Extrude1', #74 ) ;
#186 = LINE ( 'NONE', #214, #126 ) ;
#187 = ORIENTED_EDGE ( 'NONE', *, *, #171, .T. ) ;
#188 = APPROVAL_PERSON_ORGANIZATION ( #69, #130, #6 ) ;
#189 = PLANE ( 'NONE',  #44 ) ;
#190 = VECTOR ( 'NONE', #212, 1000.000000000000000 ) ;
#191 = ORIENTED_EDGE ( 'NONE', *, *, #171, .F. ) ;
#192 = CARTESIAN_POINT ( 'NONE',  ( -4.750000000000000000, 0.0000000000000000000, 0.0000000000000000000 ) ) ;
#193 = APPROVAL_PERSON_ORGANIZATION ( #112, #2, #64 ) ;
#194 = CARTESIAN_POINT ( 'NONE',  ( 4.750000000000000000, -6.250000000000007100, 12.49999999999999600 ) ) ;
#195 = EDGE_CURVE ( 'NONE', #132, #26, #142, .T. ) ;
#196 = DIRECTION ( 'NONE',  ( -1.000000000000000000, 0.0000000000000000000, 0.0000000000000000000 ) ) ;
#197 = DIRECTION ( 'NONE',  ( -1.000000000000000000, -0.0000000000000000000, -0.0000000000000000000 ) ) ;
#198 = DIRECTION ( 'NONE',  ( 0.0000000000000000000, -1.000000000000000000, -5.551115123125782700E-016 ) ) ;
#199 = ADVANCED_FACE ( 'NONE', ( #200 ), #45, .F. ) ;
#200 = FACE_OUTER_BOUND ( 'NONE', #88, .T. ) ;
#201 = CARTESIAN_POINT ( 'NONE',  ( 4.750000000000000000, -6.250000000000007100, 12.49999999999999600 ) ) ;
#202 = ORIENTED_EDGE ( 'NONE', *, *, #27, .F. ) ;
#203 = DIRECTION ( 'NONE',  ( -0.0000000000000000000, -5.551115123125782700E-016, 1.000000000000000000 ) ) ;
#204 = APPROVAL_STATUS ( 'not_yet_approved' ) ;
#205 = DATE_AND_TIME ( #159, #108 ) ;
#206 = LINE ( 'NONE', #107, #170 ) ;
#207 = ORIENTED_EDGE ( 'NONE', *, *, #49, .F. ) ;
#208 = PERSON_AND_ORGANIZATION ( #127, #93 ) ;
#209 = LINE ( 'NONE', #77, #161 ) ;
#210 = EDGE_LOOP ( 'NONE', ( #20, #59, #105, #80 ) ) ;
#211 = EDGE_LOOP ( 'NONE', ( #155, #13, #98, #187 ) ) ;
#212 = DIRECTION ( 'NONE',  ( -0.0000000000000000000, -1.000000000000000000, -1.387778780781445200E-016 ) ) ;
#213 = FACE_OUTER_BOUND ( 'NONE', #210, .T. ) ;
#214 = CARTESIAN_POINT ( 'NONE',  ( -4.750000000000000000, -6.250000000000007100, 12.49999999999999600 ) ) ;
#215 = FACE_OUTER_BOUND ( 'NONE', #28, .T. ) ;
#216 = VERTEX_POINT ( 'NONE', #43 ) ;
#217 = CARTESIAN_POINT ( 'NONE',  ( 4.750000000000000000, 6.250000000000010700, -12.50000000000000200 ) ) ;
#218 = AXIS2_PLACEMENT_3D ( 'NONE', #116, #133, #225 ) ;
#219 = PERSON_AND_ORGANIZATION ( #127, #93 ) ;
#220 = CALENDAR_DATE ( 2018, 12, 3 ) ;
#221 = AXIS2_PLACEMENT_3D ( 'NONE', #137, #22, #106 ) ;
#222 = DATE_AND_TIME ( #220, #232 ) ;
#223 = VECTOR ( 'NONE', #61, 1000.000000000000000 ) ;
#224 = FACE_OUTER_BOUND ( 'NONE', #72, .T. ) ;
#225 = DIRECTION ( 'NONE',  ( 0.0000000000000000000, 1.000000000000000000, 1.387778780781445200E-016 ) ) ;
#226 = CARTESIAN_POINT ( 'NONE',  ( -4.750000000000000000, 6.249999999999996400, 12.49999999999999800 ) ) ;
#227 = PERSON_AND_ORGANIZATION ( #127, #93 ) ;
#228 = DIRECTION ( 'NONE',  ( -1.000000000000000000, -0.0000000000000000000, -0.0000000000000000000 ) ) ;
#229 = APPLICATION_PROTOCOL_DEFINITION ( 'international standard', 'config_control_design', 1994, #135 ) ;
#230 = VECTOR ( 'NONE', #82, 1000.000000000000000 ) ;
#231 =( NAMED_UNIT ( * ) SI_UNIT ( $, .STERADIAN. ) SOLID_ANGLE_UNIT ( ) );
#232 = LOCAL_TIME ( 15, 17, 16.00000000000000000, #51 ) ;
#233 = CC_DESIGN_PERSON_AND_ORGANIZATION_ASSIGNMENT ( #208, #23, ( #124 ) ) ;
#234 = ORIENTED_EDGE ( 'NONE', *, *, #99, .F. ) ;
#235 = CC_DESIGN_PERSON_AND_ORGANIZATION_ASSIGNMENT ( #219, #165, ( #113 ) ) ;
#236 = COORDINATED_UNIVERSAL_TIME_OFFSET ( 5, 0, .BEHIND. ) ;
#237 = EDGE_CURVE ( 'NONE', #110, #132, #145, .T. ) ;
ENDSEC;
END-ISO-10303-21;
