ISO-10303-21;
HEADER;
FILE_DESCRIPTION (( 'STEP AP203' ),
    '1' );
FILE_NAME ('Web Model 47047_47049.step',
    '2017-06-06T16:59:20',
    ( '' ),
    ( '' ),
    'SwSTEP 2.0',
    'SolidWorks 2016',
    '' );
FILE_SCHEMA (( 'CONFIG_CONTROL_DESIGN' ));
ENDSEC;

DATA;
#1 = VECTOR ( 'NONE', #118, 1000.000000000000000 ) ;
#2 = DIRECTION ( 'NONE',  ( -0.0000000000000000000, 0.0000000000000000000, 1.000000000000000000 ) ) ;
#3 = ORIENTED_EDGE ( 'NONE', *, *, #292, .T. ) ;
#4 = EDGE_LOOP ( 'NONE', ( #144, #66, #304 ) ) ;
#5 = LOCAL_TIME ( 12, 59, 20.00000000000000000, #295 ) ;
#6 = CALENDAR_DATE ( 2017, 6, 6 ) ;
#7 = ADVANCED_FACE ( 'NONE', ( #88 ), #217, .T. ) ;
#8 = PLANE ( 'NONE',  #97 ) ;
#9 = CARTESIAN_POINT ( 'NONE',  ( -7.500000000000000000, 7.499999999999998200, -7.500000000000000000 ) ) ;
#10 = DIRECTION ( 'NONE',  ( 0.7071067811865474600, -0.7071067811865474600, 0.0000000000000000000 ) ) ;
#11 = FACE_OUTER_BOUND ( 'NONE', #201, .T. ) ;
#12 = PLANE ( 'NONE',  #301 ) ;
#13 = VERTEX_POINT ( 'NONE', #125 ) ;
#14 = PERSON_AND_ORGANIZATION_ROLE ( 'creator' ) ;
#15 = APPLICATION_CONTEXT ( 'configuration controlled 3d designs of mechanical parts and assemblies' ) ;
#16 = EDGE_CURVE ( 'NONE', #316, #95, #30, .T. ) ;
#17 = APPROVAL_STATUS ( 'not_yet_approved' ) ;
#18 = APPROVAL ( #207, 'UNSPECIFIED' ) ;
#19 = CALENDAR_DATE ( 2017, 6, 6 ) ;
#20 =( GEOMETRIC_REPRESENTATION_CONTEXT ( 3 ) GLOBAL_UNCERTAINTY_ASSIGNED_CONTEXT ( ( #222 ) ) GLOBAL_UNIT_ASSIGNED_CONTEXT ( ( #250, #270, #75 ) ) REPRESENTATION_CONTEXT ( 'NONE', 'WORKASPACE' ) );
#21 = CARTESIAN_POINT ( 'NONE',  ( 0.0000000000000000000, -7.499999999999999100, -7.500000000000000000 ) ) ;
#22 = LINE ( 'NONE', #252, #281 ) ;
#23 = PERSON_AND_ORGANIZATION_ROLE ( 'creator' ) ;
#24 = MANIFOLD_SOLID_BREP ( 'Boss-Extrude2', #46 ) ;
#25 = ORIENTED_EDGE ( 'NONE', *, *, #34, .T. ) ;
#26 = ORIENTED_EDGE ( 'NONE', *, *, #119, .T. ) ;
#27 = AXIS2_PLACEMENT_3D ( 'NONE', #101, #31, #91 ) ;
#28 = DATE_TIME_ROLE ( 'creation_date' ) ;
#29 = APPROVAL_DATE_TIME ( #317, #106 ) ;
#30 = LINE ( 'NONE', #33, #234 ) ;
#31 = DIRECTION ( 'NONE',  ( 0.7071067811865475700, 0.7071067811865475700, -0.0000000000000000000 ) ) ;
#32 = LINE ( 'NONE', #93, #123 ) ;
#33 = CARTESIAN_POINT ( 'NONE',  ( -7.500000000000000000, 7.499999999999998200, 7.500000000000000000 ) ) ;
#34 = EDGE_CURVE ( 'NONE', #180, #316, #89, .T. ) ;
#35 = FACE_OUTER_BOUND ( 'NONE', #4, .T. ) ;
#36 = ORIENTED_EDGE ( 'NONE', *, *, #48, .F. ) ;
#37 = CC_DESIGN_APPROVAL ( #18, ( #321 ) ) ;
#38 = ADVANCED_FACE ( 'NONE', ( #192 ), #269, .F. ) ;
#39 = CLOSED_SHELL ( 'NONE', ( #243, #113, #310, #90, #190 ) ) ;
#40 = ORIENTED_EDGE ( 'NONE', *, *, #256, .T. ) ;
#41 = PERSON ( 'UNSPECIFIED', 'UNSPECIFIED', 'UNSPECIFIED', ('UNSPECIFIED'), ('UNSPECIFIED'), ('UNSPECIFIED') ) ;
#42 = DIRECTION ( 'NONE',  ( 1.000000000000000000, 0.0000000000000000000, 0.0000000000000000000 ) ) ;
#43 = PLANE ( 'NONE',  #160 ) ;
#44 = ORIENTED_EDGE ( 'NONE', *, *, #86, .T. ) ;
#45 = PLANE ( 'NONE',  #268 ) ;
#46 = CLOSED_SHELL ( 'NONE', ( #136, #38, #7, #213, #267 ) ) ;
#47 = DATE_AND_TIME ( #265, #127 ) ;
#48 = EDGE_CURVE ( 'NONE', #180, #206, #235, .T. ) ;
#49 = CC_DESIGN_PERSON_AND_ORGANIZATION_ASSIGNMENT ( #116, #14, ( #321 ) ) ;
#50 = DIRECTION ( 'NONE',  ( 1.000000000000000000, 0.0000000000000000000, 0.0000000000000000000 ) ) ;
#51 = DIRECTION ( 'NONE',  ( -0.0000000000000000000, 0.0000000000000000000, 1.000000000000000000 ) ) ;
#52 = APPROVAL_DATE_TIME ( #176, #227 ) ;
#53 = ORIENTED_EDGE ( 'NONE', *, *, #149, .F. ) ;
#54 = LINE ( 'NONE', #117, #145 ) ;
#55 = DIRECTION ( 'NONE',  ( -0.0000000000000000000, -0.0000000000000000000, -1.000000000000000000 ) ) ;
#56 = AXIS2_PLACEMENT_3D ( 'NONE', #283, #220, #65 ) ;
#57 = ORIENTED_EDGE ( 'NONE', *, *, #273, .F. ) ;
#58 = VECTOR ( 'NONE', #68, 1000.000000000000000 ) ;
#59 = PERSON_AND_ORGANIZATION ( #41, #208 ) ;
#60 = APPROVAL_PERSON_ORGANIZATION ( #287, #227, #61 ) ;
#61 = APPROVAL_ROLE ( '' ) ;
#62 = CARTESIAN_POINT ( 'NONE',  ( -7.500000000000000000, 7.499999999999998200, 7.500000000000000000 ) ) ;
#63 = CARTESIAN_POINT ( 'NONE',  ( -7.500000000000000000, -7.499999999999999100, 7.500000000000000000 ) ) ;
#64 = DIRECTION ( 'NONE',  ( -0.0000000000000000000, -0.0000000000000000000, -1.000000000000000000 ) ) ;
#65 = DIRECTION ( 'NONE',  ( 0.0000000000000000000, -0.0000000000000000000, 1.000000000000000000 ) ) ;
#66 = ORIENTED_EDGE ( 'NONE', *, *, #132, .T. ) ;
#67 = ORIENTED_EDGE ( 'NONE', *, *, #48, .T. ) ;
#68 = DIRECTION ( 'NONE',  ( 1.000000000000000000, 0.0000000000000000000, 0.0000000000000000000 ) ) ;
#69 = DIRECTION ( 'NONE',  ( 0.7071067811865475700, 0.7071067811865475700, -0.0000000000000000000 ) ) ;
#70 = EDGE_CURVE ( 'NONE', #206, #95, #161, .T. ) ;
#71 = DIRECTION ( 'NONE',  ( 1.000000000000000000, 0.0000000000000000000, 0.0000000000000000000 ) ) ;
#72 = CC_DESIGN_DATE_AND_TIME_ASSIGNMENT ( #135, #28, ( #321 ) ) ;
#73 = LINE ( 'NONE', #214, #96 ) ;
#74 = DIRECTION ( 'NONE',  ( 0.0000000000000000000, 1.000000000000000000, 0.0000000000000000000 ) ) ;
#75 =( NAMED_UNIT ( * ) SI_UNIT ( $, .STERADIAN. ) SOLID_ANGLE_UNIT ( ) );
#76 = LINE ( 'NONE', #230, #112 ) ;
#77 = AXIS2_PLACEMENT_3D ( 'NONE', #228, #74, #262 ) ;
#78 = ORIENTED_EDGE ( 'NONE', *, *, #202, .T. ) ;
#79 = PERSON_AND_ORGANIZATION ( #41, #208 ) ;
#80 = LINE ( 'NONE', #142, #229 ) ;
#81 = DIRECTION ( 'NONE',  ( -0.0000000000000000000, 0.0000000000000000000, 1.000000000000000000 ) ) ;
#82 = APPLICATION_PROTOCOL_DEFINITION ( 'international standard', 'config_control_design', 1994, #85 ) ;
#83 = MECHANICAL_CONTEXT ( 'NONE', #15, 'mechanical' ) ;
#84 = EDGE_LOOP ( 'NONE', ( #78, #239, #299 ) ) ;
#85 = APPLICATION_CONTEXT ( 'configuration controlled 3d designs of mechanical parts and assemblies' ) ;
#86 = EDGE_CURVE ( 'NONE', #206, #13, #254, .T. ) ;
#87 = PRODUCT_DEFINITION_FORMATION_WITH_SPECIFIED_SOURCE ( 'ANY', '', #162, .NOT_KNOWN. ) ;
#88 = FACE_OUTER_BOUND ( 'NONE', #179, .T. ) ;
#89 = LINE ( 'NONE', #277, #1 ) ;
#90 = ADVANCED_FACE ( 'NONE', ( #159 ), #8, .T. ) ;
#91 = DIRECTION ( 'NONE',  ( -0.7071067811865474600, 0.7071067811865474600, 0.0000000000000000000 ) ) ;
#92 = ORIENTED_EDGE ( 'NONE', *, *, #169, .T. ) ;
#93 = CARTESIAN_POINT ( 'NONE',  ( 7.499999999999998200, 0.0000000000000000000, -7.500000000000000000 ) ) ;
#94 = PERSON_AND_ORGANIZATION_ROLE ( 'design_owner' ) ;
#95 = VERTEX_POINT ( 'NONE', #109 ) ;
#96 = VECTOR ( 'NONE', #10, 1000.000000000000100 ) ;
#97 = AXIS2_PLACEMENT_3D ( 'NONE', #182, #148, #141 ) ;
#98 = DIRECTION ( 'NONE',  ( 0.0000000000000000000, 1.000000000000000000, -0.0000000000000000000 ) ) ;
#99 = VERTEX_POINT ( 'NONE', #236 ) ;
#100 = VERTEX_POINT ( 'NONE', #221 ) ;
#101 = CARTESIAN_POINT ( 'NONE',  ( -6.133173666733495600E-016, -6.133173666733495600E-016, 7.500000000000000000 ) ) ;
#102 = PLANE ( 'NONE',  #198 ) ;
#103 = VECTOR ( 'NONE', #158, 1000.000000000000000 ) ;
#104 = EDGE_CURVE ( 'NONE', #274, #13, #308, .T. ) ;
#105 = LINE ( 'NONE', #175, #147 ) ;
#106 = APPROVAL ( #17, 'UNSPECIFIED' ) ;
#107 = DIRECTION ( 'NONE',  ( -0.0000000000000000000, -0.0000000000000000000, -1.000000000000000000 ) ) ;
#108 = LINE ( 'NONE', #263, #146 ) ;
#109 = CARTESIAN_POINT ( 'NONE',  ( -7.500000000000000000, 7.499999999999998200, -7.500000000000000000 ) ) ;
#110 = CALENDAR_DATE ( 2017, 6, 6 ) ;
#111 = ADVANCED_BREP_SHAPE_REPRESENTATION ( 'Web Model 47047_47049', ( #24, #168, #300 ), #20 ) ;
#112 = VECTOR ( 'NONE', #247, 1000.000000000000100 ) ;
#113 = ADVANCED_FACE ( 'NONE', ( #282 ), #172, .F. ) ;
#114 = EDGE_LOOP ( 'NONE', ( #210, #3, #129 ) ) ;
#115 = DIRECTION ( 'NONE',  ( 0.0000000000000000000, 0.0000000000000000000, 1.000000000000000000 ) ) ;
#116 = PERSON_AND_ORGANIZATION ( #41, #208 ) ;
#117 = CARTESIAN_POINT ( 'NONE',  ( -6.133173666733495600E-016, -6.133173666733495600E-016, -7.500000000000000000 ) ) ;
#118 = DIRECTION ( 'NONE',  ( 0.0000000000000000000, 1.000000000000000000, -0.0000000000000000000 ) ) ;
#119 = EDGE_CURVE ( 'NONE', #180, #274, #105, .T. ) ;
#120 = DIRECTION ( 'NONE',  ( 0.0000000000000000000, 0.0000000000000000000, 1.000000000000000000 ) ) ;
#121 = CC_DESIGN_APPROVAL ( #106, ( #87 ) ) ;
#122 = ORIENTED_EDGE ( 'NONE', *, *, #240, .T. ) ;
#123 = VECTOR ( 'NONE', #298, 1000.000000000000000 ) ;
#124 = DATE_AND_TIME ( #19, #253 ) ;
#125 = CARTESIAN_POINT ( 'NONE',  ( 7.499999999999998200, -7.500000000000000000, -7.500000000000000000 ) ) ;
#126 = ORIENTED_EDGE ( 'NONE', *, *, #104, .F. ) ;
#127 = LOCAL_TIME ( 12, 59, 20.00000000000000000, #131 ) ;
#128 = AXIS2_PLACEMENT_3D ( 'NONE', #313, #232, #120 ) ;
#129 = ORIENTED_EDGE ( 'NONE', *, *, #240, .F. ) ;
#130 = CARTESIAN_POINT ( 'NONE',  ( -7.500000000000000000, 7.499999999999998200, 7.500000000000000000 ) ) ;
#131 = COORDINATED_UNIVERSAL_TIME_OFFSET ( 5, 0, .BEHIND. ) ;
#132 = EDGE_CURVE ( 'NONE', #95, #13, #303, .T. ) ;
#133 = CC_DESIGN_PERSON_AND_ORGANIZATION_ASSIGNMENT ( #212, #23, ( #87 ) ) ;
#134 = ORIENTED_EDGE ( 'NONE', *, *, #104, .T. ) ;
#135 = DATE_AND_TIME ( #110, #5 ) ;
#136 = ADVANCED_FACE ( 'NONE', ( #177 ), #43, .T. ) ;
#137 = CARTESIAN_POINT ( 'NONE',  ( 7.499999999999998200, 7.499999999999999100, -7.500000000000000000 ) ) ;
#138 = CARTESIAN_POINT ( 'NONE',  ( 7.499999999999998200, -7.500000000000000000, 7.500000000000000000 ) ) ;
#139 = EDGE_LOOP ( 'NONE', ( #226, #291, #196, #197 ) ) ;
#140 = DATE_TIME_ROLE ( 'classification_date' ) ;
#141 = DIRECTION ( 'NONE',  ( 1.000000000000000000, 0.0000000000000000000, 0.0000000000000000000 ) ) ;
#142 = CARTESIAN_POINT ( 'NONE',  ( 7.499999999999998200, 0.0000000000000000000, 7.500000000000000000 ) ) ;
#143 = CARTESIAN_POINT ( 'NONE',  ( 0.0000000000000000000, 0.0000000000000000000, 7.500000000000000000 ) ) ;
#144 = ORIENTED_EDGE ( 'NONE', *, *, #70, .T. ) ;
#145 = VECTOR ( 'NONE', #248, 1000.000000000000100 ) ;
#146 = VECTOR ( 'NONE', #107, 1000.000000000000000 ) ;
#147 = VECTOR ( 'NONE', #71, 1000.000000000000000 ) ;
#148 = DIRECTION ( 'NONE',  ( -0.0000000000000000000, 0.0000000000000000000, 1.000000000000000000 ) ) ;
#149 = EDGE_CURVE ( 'NONE', #316, #274, #73, .T. ) ;
#150 = ORIENTED_EDGE ( 'NONE', *, *, #292, .F. ) ;
#151 = VERTEX_POINT ( 'NONE', #191 ) ;
#152 = CC_DESIGN_PERSON_AND_ORGANIZATION_ASSIGNMENT ( #188, #154, ( #87 ) ) ;
#153 = ORIENTED_EDGE ( 'NONE', *, *, #34, .F. ) ;
#154 = PERSON_AND_ORGANIZATION_ROLE ( 'design_supplier' ) ;
#155 = COORDINATED_UNIVERSAL_TIME_OFFSET ( 5, 0, .BEHIND. ) ;
#156 = PLANE ( 'NONE',  #77 ) ;
#157 = VECTOR ( 'NONE', #64, 1000.000000000000000 ) ;
#158 = DIRECTION ( 'NONE',  ( -0.0000000000000000000, -0.0000000000000000000, -1.000000000000000000 ) ) ;
#159 = FACE_OUTER_BOUND ( 'NONE', #84, .T. ) ;
#160 = AXIS2_PLACEMENT_3D ( 'NONE', #307, #193, #194 ) ;
#161 = LINE ( 'NONE', #305, #276 ) ;
#162 = PRODUCT ( 'Web Model 47047_47049', 'Web Model 47047_47049', '', ( #83 ) ) ;
#163 = CARTESIAN_POINT ( 'NONE',  ( 0.0000000000000000000, 7.499999999999999100, 7.500000000000000000 ) ) ;
#164 = DIRECTION ( 'NONE',  ( 1.000000000000000000, 0.0000000000000000000, 0.0000000000000000000 ) ) ;
#165 = ORIENTED_EDGE ( 'NONE', *, *, #70, .F. ) ;
#166 = CARTESIAN_POINT ( 'NONE',  ( -0.0000000000000000000, 7.499999999999999100, -7.500000000000000000 ) ) ;
#167 = COORDINATED_UNIVERSAL_TIME_OFFSET ( 5, 0, .BEHIND. ) ;
#168 = MANIFOLD_SOLID_BREP ( 'Boss-Extrude3', #39 ) ;
#169 = EDGE_CURVE ( 'NONE', #151, #99, #22, .T. ) ;
#170 = SECURITY_CLASSIFICATION ( '', '', #285 ) ;
#171 = FACE_OUTER_BOUND ( 'NONE', #302, .T. ) ;
#172 = PLANE ( 'NONE',  #128 ) ;
#173 = LINE ( 'NONE', #284, #103 ) ;
#174 = PERSON_AND_ORGANIZATION ( #41, #208 ) ;
#175 = CARTESIAN_POINT ( 'NONE',  ( 0.0000000000000000000, -7.499999999999999100, 7.500000000000000000 ) ) ;
#176 = DATE_AND_TIME ( #6, #216 ) ;
#177 = FACE_OUTER_BOUND ( 'NONE', #279, .T. ) ;
#178 = DIRECTION ( 'NONE',  ( 0.7071067811865474600, -0.7071067811865474600, 0.0000000000000000000 ) ) ;
#179 = EDGE_LOOP ( 'NONE', ( #211, #204, #296, #134 ) ) ;
#180 = VERTEX_POINT ( 'NONE', #237 ) ;
#181 = CALENDAR_DATE ( 2017, 6, 6 ) ;
#182 = CARTESIAN_POINT ( 'NONE',  ( 0.0000000000000000000, 0.0000000000000000000, 7.500000000000000000 ) ) ;
#183 = ORIENTED_EDGE ( 'NONE', *, *, #225, .F. ) ;
#184 = CARTESIAN_POINT ( 'NONE',  ( -6.133173666733495600E-016, -6.133173666733495600E-016, -7.500000000000000000 ) ) ;
#185 = EDGE_CURVE ( 'NONE', #187, #99, #54, .T. ) ;
#186 = CC_DESIGN_PERSON_AND_ORGANIZATION_ASSIGNMENT ( #59, #280, ( #170 ) ) ;
#187 = VERTEX_POINT ( 'NONE', #9 ) ;
#188 = PERSON_AND_ORGANIZATION ( #41, #208 ) ;
#189 = APPROVAL_PERSON_ORGANIZATION ( #174, #18, #315 ) ;
#190 = ADVANCED_FACE ( 'NONE', ( #259 ), #102, .F. ) ;
#191 = CARTESIAN_POINT ( 'NONE',  ( 7.499999999999998200, -7.500000000000000000, 7.500000000000000000 ) ) ;
#192 = FACE_OUTER_BOUND ( 'NONE', #294, .T. ) ;
#193 = DIRECTION ( 'NONE',  ( -1.000000000000000000, 0.0000000000000000000, 0.0000000000000000000 ) ) ;
#194 = DIRECTION ( 'NONE',  ( 0.0000000000000000000, 0.0000000000000000000, 1.000000000000000000 ) ) ;
#195 = CARTESIAN_POINT ( 'NONE',  ( 0.0000000000000000000, 0.0000000000000000000, 0.0000000000000000000 ) ) ;
#196 = ORIENTED_EDGE ( 'NONE', *, *, #202, .F. ) ;
#197 = ORIENTED_EDGE ( 'NONE', *, *, #225, .T. ) ;
#198 = AXIS2_PLACEMENT_3D ( 'NONE', #288, #51, #42 ) ;
#199 = DIRECTION ( 'NONE',  ( 0.0000000000000000000, 1.000000000000000000, -0.0000000000000000000 ) ) ;
#200 = VECTOR ( 'NONE', #178, 1000.000000000000100 ) ;
#201 = EDGE_LOOP ( 'NONE', ( #150, #183, #260, #40 ) ) ;
#202 = EDGE_CURVE ( 'NONE', #289, #151, #76, .T. ) ;
#203 = DESIGN_CONTEXT ( 'detailed design', #85, 'design' ) ;
#204 = ORIENTED_EDGE ( 'NONE', *, *, #16, .F. ) ;
#205 = CC_DESIGN_DATE_AND_TIME_ASSIGNMENT ( #47, #140, ( #170 ) ) ;
#206 = VERTEX_POINT ( 'NONE', #311 ) ;
#207 = APPROVAL_STATUS ( 'not_yet_approved' ) ;
#208 = ORGANIZATION ( 'UNSPECIFIED', 'UNSPECIFIED', '' ) ;
#209 = ORIENTED_EDGE ( 'NONE', *, *, #256, .F. ) ;
#210 = ORIENTED_EDGE ( 'NONE', *, *, #185, .F. ) ;
#211 = ORIENTED_EDGE ( 'NONE', *, *, #132, .F. ) ;
#212 = PERSON_AND_ORGANIZATION ( #41, #208 ) ;
#213 = ADVANCED_FACE ( 'NONE', ( #171 ), #242, .T. ) ;
#214 = CARTESIAN_POINT ( 'NONE',  ( -6.133173666733495600E-016, -6.133173666733495600E-016, 7.500000000000000000 ) ) ;
#215 = DIRECTION ( 'NONE',  ( 1.000000000000000000, 0.0000000000000000000, 0.0000000000000000000 ) ) ;
#216 = LOCAL_TIME ( 12, 59, 20.00000000000000000, #286 ) ;
#217 = PLANE ( 'NONE',  #27 ) ;
#218 = VERTEX_POINT ( 'NONE', #137 ) ;
#219 = CARTESIAN_POINT ( 'NONE',  ( 0.0000000000000000000, 0.0000000000000000000, -7.500000000000000000 ) ) ;
#220 = DIRECTION ( 'NONE',  ( 0.0000000000000000000, 1.000000000000000000, 0.0000000000000000000 ) ) ;
#221 = CARTESIAN_POINT ( 'NONE',  ( 7.499999999999998200, 7.499999999999999100, 7.500000000000000000 ) ) ;
#222 = UNCERTAINTY_MEASURE_WITH_UNIT (LENGTH_MEASURE( 1.000000000000000100E-005 ), #250, 'distance_accuracy_value', 'NONE');
#223 = DIRECTION ( 'NONE',  ( -0.7071067811865474600, 0.7071067811865474600, 0.0000000000000000000 ) ) ;
#224 = PRODUCT_DEFINITION_SHAPE ( 'NONE', 'NONE',  #321 ) ;
#225 = EDGE_CURVE ( 'NONE', #289, #187, #108, .T. ) ;
#226 = ORIENTED_EDGE ( 'NONE', *, *, #185, .T. ) ;
#227 = APPROVAL ( #297, 'UNSPECIFIED' ) ;
#228 = CARTESIAN_POINT ( 'NONE',  ( 0.0000000000000000000, 7.499999999999999100, 7.500000000000000000 ) ) ;
#229 = VECTOR ( 'NONE', #98, 1000.000000000000000 ) ;
#230 = CARTESIAN_POINT ( 'NONE',  ( -6.133173666733495600E-016, -6.133173666733495600E-016, 7.500000000000000000 ) ) ;
#231 = APPROVAL_PERSON_ORGANIZATION ( #318, #106, #293 ) ;
#232 = DIRECTION ( 'NONE',  ( -1.000000000000000000, 0.0000000000000000000, 0.0000000000000000000 ) ) ;
#233 = AXIS2_PLACEMENT_3D ( 'NONE', #143, #2, #320 ) ;
#234 = VECTOR ( 'NONE', #55, 1000.000000000000000 ) ;
#235 = LINE ( 'NONE', #63, #266 ) ;
#236 = CARTESIAN_POINT ( 'NONE',  ( 7.499999999999998200, -7.500000000000000000, -7.500000000000000000 ) ) ;
#237 = CARTESIAN_POINT ( 'NONE',  ( -7.500000000000000000, -7.499999999999999100, 7.500000000000000000 ) ) ;
#238 = FACE_OUTER_BOUND ( 'NONE', #139, .T. ) ;
#239 = ORIENTED_EDGE ( 'NONE', *, *, #273, .T. ) ;
#240 = EDGE_CURVE ( 'NONE', #99, #218, #32, .T. ) ;
#241 = CC_DESIGN_APPROVAL ( #227, ( #170 ) ) ;
#242 = PLANE ( 'NONE',  #233 ) ;
#243 = ADVANCED_FACE ( 'NONE', ( #238 ), #45, .F. ) ;
#244 = EDGE_LOOP ( 'NONE', ( #122, #209, #57, #92 ) ) ;
#245 = ORIENTED_EDGE ( 'NONE', *, *, #119, .F. ) ;
#246 = SHAPE_DEFINITION_REPRESENTATION ( #224, #111 ) ;
#247 = DIRECTION ( 'NONE',  ( 0.7071067811865474600, -0.7071067811865474600, 0.0000000000000000000 ) ) ;
#248 = DIRECTION ( 'NONE',  ( 0.7071067811865474600, -0.7071067811865474600, 0.0000000000000000000 ) ) ;
#249 = CARTESIAN_POINT ( 'NONE',  ( 7.499999999999998200, -7.500000000000000000, 7.500000000000000000 ) ) ;
#250 =( LENGTH_UNIT ( ) NAMED_UNIT ( * ) SI_UNIT ( .MILLI., .METRE. ) );
#251 = LINE ( 'NONE', #163, #258 ) ;
#252 = CARTESIAN_POINT ( 'NONE',  ( 7.499999999999998200, -7.500000000000000000, 7.500000000000000000 ) ) ;
#253 = LOCAL_TIME ( 12, 59, 20.00000000000000000, #167 ) ;
#254 = LINE ( 'NONE', #21, #58 ) ;
#255 = DIRECTION ( 'NONE',  ( -0.0000000000000000000, -0.0000000000000000000, -1.000000000000000000 ) ) ;
#256 = EDGE_CURVE ( 'NONE', #100, #218, #173, .T. ) ;
#257 = CC_DESIGN_SECURITY_CLASSIFICATION ( #170, ( #87 ) ) ;
#258 = VECTOR ( 'NONE', #164, 1000.000000000000000 ) ;
#259 = FACE_OUTER_BOUND ( 'NONE', #114, .T. ) ;
#260 = ORIENTED_EDGE ( 'NONE', *, *, #306, .T. ) ;
#261 = APPROVAL_DATE_TIME ( #124, #18 ) ;
#262 = DIRECTION ( 'NONE',  ( 0.0000000000000000000, -0.0000000000000000000, 1.000000000000000000 ) ) ;
#263 = CARTESIAN_POINT ( 'NONE',  ( -7.500000000000000000, 7.499999999999998200, 7.500000000000000000 ) ) ;
#264 = VECTOR ( 'NONE', #319, 1000.000000000000000 ) ;
#265 = CALENDAR_DATE ( 2017, 6, 6 ) ;
#266 = VECTOR ( 'NONE', #271, 1000.000000000000000 ) ;
#267 = ADVANCED_FACE ( 'NONE', ( #35 ), #12, .F. ) ;
#268 = AXIS2_PLACEMENT_3D ( 'NONE', #312, #69, #223 ) ;
#269 = PLANE ( 'NONE',  #56 ) ;
#270 =( NAMED_UNIT ( * ) PLANE_ANGLE_UNIT ( ) SI_UNIT ( $, .RADIAN. ) );
#271 = DIRECTION ( 'NONE',  ( -0.0000000000000000000, -0.0000000000000000000, -1.000000000000000000 ) ) ;
#272 = ORIENTED_EDGE ( 'NONE', *, *, #16, .T. ) ;
#273 = EDGE_CURVE ( 'NONE', #151, #100, #80, .T. ) ;
#274 = VERTEX_POINT ( 'NONE', #138 ) ;
#275 = PRODUCT_RELATED_PRODUCT_CATEGORY ( 'detail', '', ( #162 ) ) ;
#276 = VECTOR ( 'NONE', #199, 1000.000000000000000 ) ;
#277 = CARTESIAN_POINT ( 'NONE',  ( -7.500000000000000000, 0.0000000000000000000, 7.500000000000000000 ) ) ;
#278 = APPLICATION_PROTOCOL_DEFINITION ( 'international standard', 'config_control_design', 1994, #15 ) ;
#279 = EDGE_LOOP ( 'NONE', ( #165, #36, #25, #272 ) ) ;
#280 = PERSON_AND_ORGANIZATION_ROLE ( 'classification_officer' ) ;
#281 = VECTOR ( 'NONE', #255, 1000.000000000000000 ) ;
#282 = FACE_OUTER_BOUND ( 'NONE', #244, .T. ) ;
#283 = CARTESIAN_POINT ( 'NONE',  ( 0.0000000000000000000, -7.499999999999999100, 7.500000000000000000 ) ) ;
#284 = CARTESIAN_POINT ( 'NONE',  ( 7.499999999999998200, 7.499999999999999100, 7.500000000000000000 ) ) ;
#285 = SECURITY_CLASSIFICATION_LEVEL ( 'unclassified' ) ;
#286 = COORDINATED_UNIVERSAL_TIME_OFFSET ( 5, 0, .BEHIND. ) ;
#287 = PERSON_AND_ORGANIZATION ( #41, #208 ) ;
#288 = CARTESIAN_POINT ( 'NONE',  ( 0.0000000000000000000, 0.0000000000000000000, -7.500000000000000000 ) ) ;
#289 = VERTEX_POINT ( 'NONE', #130 ) ;
#290 = LOCAL_TIME ( 12, 59, 20.00000000000000000, #155 ) ;
#291 = ORIENTED_EDGE ( 'NONE', *, *, #169, .F. ) ;
#292 = EDGE_CURVE ( 'NONE', #187, #218, #314, .T. ) ;
#293 = APPROVAL_ROLE ( '' ) ;
#294 = EDGE_LOOP ( 'NONE', ( #44, #126, #245, #67 ) ) ;
#295 = COORDINATED_UNIVERSAL_TIME_OFFSET ( 5, 0, .BEHIND. ) ;
#296 = ORIENTED_EDGE ( 'NONE', *, *, #149, .T. ) ;
#297 = APPROVAL_STATUS ( 'not_yet_approved' ) ;
#298 = DIRECTION ( 'NONE',  ( 0.0000000000000000000, 1.000000000000000000, -0.0000000000000000000 ) ) ;
#299 = ORIENTED_EDGE ( 'NONE', *, *, #306, .F. ) ;
#300 = AXIS2_PLACEMENT_3D ( 'NONE', #195, #115, #50 ) ;
#301 = AXIS2_PLACEMENT_3D ( 'NONE', #219, #81, #215 ) ;
#302 = EDGE_LOOP ( 'NONE', ( #153, #26, #53 ) ) ;
#303 = LINE ( 'NONE', #184, #200 ) ;
#304 = ORIENTED_EDGE ( 'NONE', *, *, #86, .F. ) ;
#305 = CARTESIAN_POINT ( 'NONE',  ( -7.500000000000000000, 0.0000000000000000000, -7.500000000000000000 ) ) ;
#306 = EDGE_CURVE ( 'NONE', #289, #100, #251, .T. ) ;
#307 = CARTESIAN_POINT ( 'NONE',  ( -7.500000000000000000, 0.0000000000000000000, 7.500000000000000000 ) ) ;
#308 = LINE ( 'NONE', #249, #157 ) ;
#309 = CC_DESIGN_PERSON_AND_ORGANIZATION_ASSIGNMENT ( #79, #94, ( #162 ) ) ;
#310 = ADVANCED_FACE ( 'NONE', ( #11 ), #156, .T. ) ;
#311 = CARTESIAN_POINT ( 'NONE',  ( -7.500000000000000000, -7.499999999999999100, -7.500000000000000000 ) ) ;
#312 = CARTESIAN_POINT ( 'NONE',  ( -6.133173666733495600E-016, -6.133173666733495600E-016, 7.500000000000000000 ) ) ;
#313 = CARTESIAN_POINT ( 'NONE',  ( 7.499999999999998200, 0.0000000000000000000, 7.500000000000000000 ) ) ;
#314 = LINE ( 'NONE', #166, #264 ) ;
#315 = APPROVAL_ROLE ( '' ) ;
#316 = VERTEX_POINT ( 'NONE', #62 ) ;
#317 = DATE_AND_TIME ( #181, #290 ) ;
#318 = PERSON_AND_ORGANIZATION ( #41, #208 ) ;
#319 = DIRECTION ( 'NONE',  ( 1.000000000000000000, 0.0000000000000000000, 0.0000000000000000000 ) ) ;
#320 = DIRECTION ( 'NONE',  ( 1.000000000000000000, 0.0000000000000000000, 0.0000000000000000000 ) ) ;
#321 = PRODUCT_DEFINITION ( 'UNKNOWN', '', #87, #203 ) ;
ENDSEC;
END-ISO-10303-21;
