ISO-10303-21;
HEADER;
FILE_DESCRIPTION (( 'STEP AP203' ),
    '1' );
FILE_NAME ('Web Model 68523_47942.step',
    '2017-03-22T18:20:49',
    ( '' ),
    ( '' ),
    'SwSTEP 2.0',
    'SolidWorks 2016',
    '' );
FILE_SCHEMA (( 'CONFIG_CONTROL_DESIGN' ));
ENDSEC;

DATA;
#1 = CC_DESIGN_APPROVAL ( #168, ( #26 ) ) ;
#2 = DATE_AND_TIME ( #66, #33 ) ;
#3 = ORIENTED_EDGE ( 'NONE', *, *, #140, .F. ) ;
#4 = COORDINATED_UNIVERSAL_TIME_OFFSET ( 5, 0, .BEHIND. ) ;
#5 = VECTOR ( 'NONE', #45, 1000.000000000000000 ) ;
#6 = CC_DESIGN_DATE_AND_TIME_ASSIGNMENT ( #122, #72, ( #26 ) ) ;
#7 = CC_DESIGN_PERSON_AND_ORGANIZATION_ASSIGNMENT ( #84, #90, ( #112 ) ) ;
#8 = DIRECTION ( 'NONE',  ( 0.0000000000000000000, -0.0000000000000000000, 1.000000000000000000 ) ) ;
#9 = CC_DESIGN_SECURITY_CLASSIFICATION ( #26, ( #112 ) ) ;
#10 = SECURITY_CLASSIFICATION_LEVEL ( 'unclassified' ) ;
#11 = CARTESIAN_POINT ( 'NONE',  ( 0.0000000000000000000, 3.000000000000000000, 0.0000000000000000000 ) ) ;
#12 = LOCAL_TIME ( 14, 20, 49.00000000000000000, #82 ) ;
#13 = CC_DESIGN_PERSON_AND_ORGANIZATION_ASSIGNMENT ( #130, #34, ( #42 ) ) ;
#14 = DIRECTION ( 'NONE',  ( 0.0000000000000000000, 0.0000000000000000000, -1.000000000000000000 ) ) ;
#15 = DATE_TIME_ROLE ( 'creation_date' ) ;
#16 = CARTESIAN_POINT ( 'NONE',  ( 0.0000000000000000000, 0.0000000000000000000, 0.0000000000000000000 ) ) ;
#17 = CC_DESIGN_PERSON_AND_ORGANIZATION_ASSIGNMENT ( #111, #174, ( #91 ) ) ;
#18 = EDGE_CURVE ( 'NONE', #78, #70, #120, .T. ) ;
#19 = COORDINATED_UNIVERSAL_TIME_OFFSET ( 5, 0, .BEHIND. ) ;
#20 = AXIS2_PLACEMENT_3D ( 'NONE', #92, #55, #137 ) ;
#21 = ORIENTED_EDGE ( 'NONE', *, *, #18, .F. ) ;
#22 = PRODUCT_RELATED_PRODUCT_CATEGORY ( 'detail', '', ( #42 ) ) ;
#23 = PERSON_AND_ORGANIZATION ( #73, #125 ) ;
#24 = APPROVAL ( #136, 'UNSPECIFIED' ) ;
#25 = APPROVAL_PERSON_ORGANIZATION ( #59, #168, #88 ) ;
#26 = SECURITY_CLASSIFICATION ( '', '', #10 ) ;
#27 = CIRCLE ( 'NONE', #138, 12.50000000000000000 ) ;
#28 = EDGE_LOOP ( 'NONE', ( #3, #129, #146, #121 ) ) ;
#29 = DATE_AND_TIME ( #57, #98 ) ;
#30 = DIRECTION ( 'NONE',  ( -0.0000000000000000000, -1.000000000000000000, -0.0000000000000000000 ) ) ;
#31 = DIRECTION ( 'NONE',  ( 0.0000000000000000000, 1.000000000000000000, 0.0000000000000000000 ) ) ;
#32 = DIRECTION ( 'NONE',  ( 0.0000000000000000000, 1.000000000000000000, 0.0000000000000000000 ) ) ;
#33 = LOCAL_TIME ( 14, 20, 49.00000000000000000, #61 ) ;
#34 = PERSON_AND_ORGANIZATION_ROLE ( 'design_owner' ) ;
#35 = ORIENTED_EDGE ( 'NONE', *, *, #60, .F. ) ;
#36 = CYLINDRICAL_SURFACE ( 'NONE', #171, 12.50000000000000000 ) ;
#37 = PRODUCT_DEFINITION_SHAPE ( 'NONE', 'NONE',  #91 ) ;
#38 = ORIENTED_EDGE ( 'NONE', *, *, #74, .F. ) ;
#39 = CALENDAR_DATE ( 2017, 22, 3 ) ;
#40 = VERTEX_POINT ( 'NONE', #46 ) ;
#41 = DIRECTION ( 'NONE',  ( 0.0000000000000000000, 1.000000000000000000, 0.0000000000000000000 ) ) ;
#42 = PRODUCT ( 'Web Model 68523_47942', 'Web Model 68523_47942', '', ( #172 ) ) ;
#43 = DIRECTION ( 'NONE',  ( -0.0000000000000000000, -1.000000000000000000, -0.0000000000000000000 ) ) ;
#44 = DIRECTION ( 'NONE',  ( 0.0000000000000000000, 1.000000000000000000, 0.0000000000000000000 ) ) ;
#45 = DIRECTION ( 'NONE',  ( -0.0000000000000000000, -1.000000000000000000, -0.0000000000000000000 ) ) ;
#46 = CARTESIAN_POINT ( 'NONE',  ( 0.0000000000000000000, 3.000000000000000000, -12.50000000000000000 ) ) ;
#47 = CC_DESIGN_DATE_AND_TIME_ASSIGNMENT ( #29, #15, ( #91 ) ) ;
#48 = FACE_OUTER_BOUND ( 'NONE', #58, .T. ) ;
#49 = AXIS2_PLACEMENT_3D ( 'NONE', #118, #44, #54 ) ;
#50 = PERSON_AND_ORGANIZATION ( #73, #125 ) ;
#51 = CC_DESIGN_APPROVAL ( #24, ( #91 ) ) ;
#52 = DIRECTION ( 'NONE',  ( 0.0000000000000000000, 0.0000000000000000000, -1.000000000000000000 ) ) ;
#53 = MANIFOLD_SOLID_BREP ( 'Extrude1', #109 ) ;
#54 = DIRECTION ( 'NONE',  ( 0.0000000000000000000, -0.0000000000000000000, 1.000000000000000000 ) ) ;
#55 = DIRECTION ( 'NONE',  ( 0.0000000000000000000, 1.000000000000000000, 0.0000000000000000000 ) ) ;
#56 = FACE_OUTER_BOUND ( 'NONE', #28, .T. ) ;
#57 = CALENDAR_DATE ( 2017, 22, 3 ) ;
#58 = EDGE_LOOP ( 'NONE', ( #35, #164, #102, #133 ) ) ;
#59 = PERSON_AND_ORGANIZATION ( #73, #125 ) ;
#60 = EDGE_CURVE ( 'NONE', #105, #78, #94, .T. ) ;
#61 = COORDINATED_UNIVERSAL_TIME_OFFSET ( 5, 0, .BEHIND. ) ;
#62 = LINE ( 'NONE', #93, #5 ) ;
#63 = FACE_OUTER_BOUND ( 'NONE', #153, .T. ) ;
#64 = DIRECTION ( 'NONE',  ( 1.000000000000000000, 0.0000000000000000000, 0.0000000000000000000 ) ) ;
#65 = CARTESIAN_POINT ( 'NONE',  ( 1.530808498934191500E-015, 3.000000000000000000, 12.50000000000000000 ) ) ;
#66 = CALENDAR_DATE ( 2017, 22, 3 ) ;
#67 = PLANE ( 'NONE',  #154 ) ;
#68 = APPLICATION_PROTOCOL_DEFINITION ( 'international standard', 'config_control_design', 1994, #162 ) ;
#69 = EDGE_LOOP ( 'NONE', ( #38, #21 ) ) ;
#70 = VERTEX_POINT ( 'NONE', #161 ) ;
#71 = APPROVAL_DATE_TIME ( #115, #142 ) ;
#72 = DATE_TIME_ROLE ( 'classification_date' ) ;
#73 = PERSON ( 'UNSPECIFIED', 'UNSPECIFIED', 'UNSPECIFIED', ('UNSPECIFIED'), ('UNSPECIFIED'), ('UNSPECIFIED') ) ;
#74 = EDGE_CURVE ( 'NONE', #70, #78, #27, .T. ) ;
#75 = DESIGN_CONTEXT ( 'detailed design', #162, 'design' ) ;
#76 = DIRECTION ( 'NONE',  ( 0.0000000000000000000, 0.0000000000000000000, 1.000000000000000000 ) ) ;
#77 = CARTESIAN_POINT ( 'NONE',  ( 0.0000000000000000000, 3.000000000000000000, 0.0000000000000000000 ) ) ;
#78 = VERTEX_POINT ( 'NONE', #113 ) ;
#79 = PERSON_AND_ORGANIZATION_ROLE ( 'design_supplier' ) ;
#80 = EDGE_CURVE ( 'NONE', #40, #70, #62, .T. ) ;
#81 = APPLICATION_CONTEXT ( 'configuration controlled 3d designs of mechanical parts and assemblies' ) ;
#82 = COORDINATED_UNIVERSAL_TIME_OFFSET ( 5, 0, .BEHIND. ) ;
#83 = ADVANCED_FACE ( 'NONE', ( #56 ), #36, .T. ) ;
#84 = PERSON_AND_ORGANIZATION ( #73, #125 ) ;
#85 = ADVANCED_FACE ( 'NONE', ( #160 ), #86, .F. ) ;
#86 = PLANE ( 'NONE',  #49 ) ;
#87 = APPROVAL_ROLE ( '' ) ;
#88 = APPROVAL_ROLE ( '' ) ;
#89 = ORIENTED_EDGE ( 'NONE', *, *, #140, .T. ) ;
#90 = PERSON_AND_ORGANIZATION_ROLE ( 'creator' ) ;
#91 = PRODUCT_DEFINITION ( 'UNKNOWN', '', #112, #75 ) ;
#92 = CARTESIAN_POINT ( 'NONE',  ( 0.0000000000000000000, 3.000000000000000000, 0.0000000000000000000 ) ) ;
#93 = CARTESIAN_POINT ( 'NONE',  ( 0.0000000000000000000, 3.000000000000000000, -12.50000000000000000 ) ) ;
#94 = LINE ( 'NONE', #175, #124 ) ;
#95 = AXIS2_PLACEMENT_3D ( 'NONE', #155, #41, #132 ) ;
#96 = CALENDAR_DATE ( 2017, 22, 3 ) ;
#97 = AXIS2_PLACEMENT_3D ( 'NONE', #147, #32, #114 ) ;
#98 = LOCAL_TIME ( 14, 20, 49.00000000000000000, #19 ) ;
#99 = CIRCLE ( 'NONE', #20, 12.50000000000000000 ) ;
#100 = LOCAL_TIME ( 14, 20, 49.00000000000000000, #143 ) ;
#101 = DIRECTION ( 'NONE',  ( 0.0000000000000000000, 1.000000000000000000, 0.0000000000000000000 ) ) ;
#102 = ORIENTED_EDGE ( 'NONE', *, *, #80, .T. ) ;
#103 =( LENGTH_UNIT ( ) NAMED_UNIT ( * ) SI_UNIT ( .MILLI., .METRE. ) );
#104 = APPROVAL_ROLE ( '' ) ;
#105 = VERTEX_POINT ( 'NONE', #65 ) ;
#106 =( NAMED_UNIT ( * ) PLANE_ANGLE_UNIT ( ) SI_UNIT ( $, .RADIAN. ) );
#107 = APPROVAL_PERSON_ORGANIZATION ( #144, #24, #87 ) ;
#108 = DATE_AND_TIME ( #96, #100 ) ;
#109 = CLOSED_SHELL ( 'NONE', ( #83, #173, #123, #85 ) ) ;
#110 = CALENDAR_DATE ( 2017, 22, 3 ) ;
#111 = PERSON_AND_ORGANIZATION ( #73, #125 ) ;
#112 = PRODUCT_DEFINITION_FORMATION_WITH_SPECIFIED_SOURCE ( 'ANY', '', #42, .NOT_KNOWN. ) ;
#113 = CARTESIAN_POINT ( 'NONE',  ( 1.530808498934191500E-015, 0.0000000000000000000, 12.50000000000000000 ) ) ;
#114 = DIRECTION ( 'NONE',  ( 0.0000000000000000000, 0.0000000000000000000, 1.000000000000000000 ) ) ;
#115 = DATE_AND_TIME ( #110, #126 ) ;
#116 = PERSON_AND_ORGANIZATION_ROLE ( 'classification_officer' ) ;
#117 = CARTESIAN_POINT ( 'NONE',  ( 0.0000000000000000000, 3.000000000000000000, 0.0000000000000000000 ) ) ;
#118 = CARTESIAN_POINT ( 'NONE',  ( 0.0000000000000000000, 0.0000000000000000000, 0.0000000000000000000 ) ) ;
#119 = APPLICATION_PROTOCOL_DEFINITION ( 'international standard', 'config_control_design', 1994, #81 ) ;
#120 = CIRCLE ( 'NONE', #95, 12.50000000000000000 ) ;
#121 = ORIENTED_EDGE ( 'NONE', *, *, #80, .F. ) ;
#122 = DATE_AND_TIME ( #39, #12 ) ;
#123 = ADVANCED_FACE ( 'NONE', ( #63 ), #67, .T. ) ;
#124 = VECTOR ( 'NONE', #30, 1000.000000000000000 ) ;
#125 = ORGANIZATION ( 'UNSPECIFIED', 'UNSPECIFIED', '' ) ;
#126 = LOCAL_TIME ( 14, 20, 49.00000000000000000, #4 ) ;
#127 = CYLINDRICAL_SURFACE ( 'NONE', #170, 12.50000000000000000 ) ;
#128 = ADVANCED_BREP_SHAPE_REPRESENTATION ( 'Web Model 68523_47942', ( #53, #150 ), #139 ) ;
#129 = ORIENTED_EDGE ( 'NONE', *, *, #60, .T. ) ;
#130 = PERSON_AND_ORGANIZATION ( #73, #125 ) ;
#131 = DIRECTION ( 'NONE',  ( 0.0000000000000000000, 0.0000000000000000000, 1.000000000000000000 ) ) ;
#132 = DIRECTION ( 'NONE',  ( 0.0000000000000000000, 0.0000000000000000000, 1.000000000000000000 ) ) ;
#133 = ORIENTED_EDGE ( 'NONE', *, *, #74, .T. ) ;
#134 = APPROVAL_STATUS ( 'not_yet_approved' ) ;
#135 =( NAMED_UNIT ( * ) SI_UNIT ( $, .STERADIAN. ) SOLID_ANGLE_UNIT ( ) );
#136 = APPROVAL_STATUS ( 'not_yet_approved' ) ;
#137 = DIRECTION ( 'NONE',  ( 0.0000000000000000000, 0.0000000000000000000, 1.000000000000000000 ) ) ;
#138 = AXIS2_PLACEMENT_3D ( 'NONE', #149, #31, #76 ) ;
#139 =( GEOMETRIC_REPRESENTATION_CONTEXT ( 3 ) GLOBAL_UNCERTAINTY_ASSIGNED_CONTEXT ( ( #165 ) ) GLOBAL_UNIT_ASSIGNED_CONTEXT ( ( #103, #106, #135 ) ) REPRESENTATION_CONTEXT ( 'NONE', 'WORKASPACE' ) );
#140 = EDGE_CURVE ( 'NONE', #105, #40, #99, .T. ) ;
#141 = APPROVAL_DATE_TIME ( #2, #168 ) ;
#142 = APPROVAL ( #159, 'UNSPECIFIED' ) ;
#143 = COORDINATED_UNIVERSAL_TIME_OFFSET ( 5, 0, .BEHIND. ) ;
#144 = PERSON_AND_ORGANIZATION ( #73, #125 ) ;
#145 = CC_DESIGN_PERSON_AND_ORGANIZATION_ASSIGNMENT ( #148, #116, ( #26 ) ) ;
#146 = ORIENTED_EDGE ( 'NONE', *, *, #18, .T. ) ;
#147 = CARTESIAN_POINT ( 'NONE',  ( 0.0000000000000000000, 3.000000000000000000, 0.0000000000000000000 ) ) ;
#148 = PERSON_AND_ORGANIZATION ( #73, #125 ) ;
#149 = CARTESIAN_POINT ( 'NONE',  ( 0.0000000000000000000, 0.0000000000000000000, 0.0000000000000000000 ) ) ;
#150 = AXIS2_PLACEMENT_3D ( 'NONE', #16, #131, #64 ) ;
#151 = CC_DESIGN_APPROVAL ( #142, ( #112 ) ) ;
#152 = EDGE_CURVE ( 'NONE', #40, #105, #158, .T. ) ;
#153 = EDGE_LOOP ( 'NONE', ( #166, #89 ) ) ;
#154 = AXIS2_PLACEMENT_3D ( 'NONE', #77, #101, #8 ) ;
#155 = CARTESIAN_POINT ( 'NONE',  ( 0.0000000000000000000, 0.0000000000000000000, 0.0000000000000000000 ) ) ;
#156 = APPROVAL_PERSON_ORGANIZATION ( #50, #142, #104 ) ;
#157 = DIRECTION ( 'NONE',  ( -0.0000000000000000000, -1.000000000000000000, -0.0000000000000000000 ) ) ;
#158 = CIRCLE ( 'NONE', #97, 12.50000000000000000 ) ;
#159 = APPROVAL_STATUS ( 'not_yet_approved' ) ;
#160 = FACE_OUTER_BOUND ( 'NONE', #69, .T. ) ;
#161 = CARTESIAN_POINT ( 'NONE',  ( 0.0000000000000000000, 0.0000000000000000000, -12.50000000000000000 ) ) ;
#162 = APPLICATION_CONTEXT ( 'configuration controlled 3d designs of mechanical parts and assemblies' ) ;
#163 = SHAPE_DEFINITION_REPRESENTATION ( #37, #128 ) ;
#164 = ORIENTED_EDGE ( 'NONE', *, *, #152, .F. ) ;
#165 = UNCERTAINTY_MEASURE_WITH_UNIT (LENGTH_MEASURE( 1.000000000000000100E-005 ), #103, 'distance_accuracy_value', 'NONE');
#166 = ORIENTED_EDGE ( 'NONE', *, *, #152, .T. ) ;
#167 = APPROVAL_DATE_TIME ( #108, #24 ) ;
#168 = APPROVAL ( #134, 'UNSPECIFIED' ) ;
#169 = CC_DESIGN_PERSON_AND_ORGANIZATION_ASSIGNMENT ( #23, #79, ( #112 ) ) ;
#170 = AXIS2_PLACEMENT_3D ( 'NONE', #11, #43, #52 ) ;
#171 = AXIS2_PLACEMENT_3D ( 'NONE', #117, #157, #14 ) ;
#172 = MECHANICAL_CONTEXT ( 'NONE', #81, 'mechanical' ) ;
#173 = ADVANCED_FACE ( 'NONE', ( #48 ), #127, .T. ) ;
#174 = PERSON_AND_ORGANIZATION_ROLE ( 'creator' ) ;
#175 = CARTESIAN_POINT ( 'NONE',  ( 1.530808498934191500E-015, 3.000000000000000000, 12.50000000000000000 ) ) ;
ENDSEC;
END-ISO-10303-21;
