ISO-10303-21;
HEADER;
FILE_DESCRIPTION (( 'STEP AP203' ),
    '1' );
FILE_NAME ('Web Model 17669_17669.step',
    '2021-08-09T16:49:22',
    ( '' ),
    ( '' ),
    'SwSTEP 2.0',
    'SolidWorks 2018',
    '' );
FILE_SCHEMA (( 'CONFIG_CONTROL_DESIGN' ));
ENDSEC;

DATA;
#1 = PERSON_AND_ORGANIZATION_ROLE ( 'design_owner' ) ;
#2 = SECURITY_CLASSIFICATION_LEVEL ( 'unclassified' ) ;
#3 = DATE_AND_TIME ( #63, #65 ) ;
#4 = CIRCLE ( 'NONE', #59, 50.00000000000000000 ) ;
#5 = CC_DESIGN_SECURITY_CLASSIFICATION ( #120, ( #22 ) ) ;
#6 = ORIENTED_EDGE ( 'NONE', *, *, #24, .F. ) ;
#7 = CALENDAR_DATE ( 2021, 9, 8 ) ;
#8 = FACE_OUTER_BOUND ( 'NONE', #110, .T. ) ;
#9 = CC_DESIGN_APPROVAL ( #171, ( #120 ) ) ;
#10 = CARTESIAN_POINT ( 'NONE',  ( 50.00000000000000000, 6.123233995736766085E-15, 6.000000000000000000 ) ) ;
#11 = CARTESIAN_POINT ( 'NONE',  ( 0.000000000000000000, 0.000000000000000000, 0.000000000000000000 ) ) ;
#12 = CC_DESIGN_APPROVAL ( #92, ( #22 ) ) ;
#13 = DESIGN_CONTEXT ( 'detailed design', #17, 'design' ) ;
#14 = VERTEX_POINT ( 'NONE', #10 ) ;
#15 = LOCAL_TIME ( 12, 49, 22.00000000000000000, #55 ) ;
#16 = FACE_OUTER_BOUND ( 'NONE', #68, .T. ) ;
#17 = APPLICATION_CONTEXT ( 'configuration controlled 3d designs of mechanical parts and assemblies' ) ;
#18 = AXIS2_PLACEMENT_3D ( 'NONE', #11, #172, #173 ) ;
#19 = CARTESIAN_POINT ( 'NONE',  ( -50.00000000000000000, 0.000000000000000000, 0.000000000000000000 ) ) ;
#20 = CARTESIAN_POINT ( 'NONE',  ( -50.00000000000000000, 0.000000000000000000, 6.000000000000000000 ) ) ;
#21 = LOCAL_TIME ( 12, 49, 22.00000000000000000, #167 ) ;
#22 = PRODUCT_DEFINITION_FORMATION_WITH_SPECIFIED_SOURCE ( 'ANY', '', #56, .NOT_KNOWN. ) ;
#23 = PERSON_AND_ORGANIZATION ( #126, #69 ) ;
#24 = EDGE_CURVE ( 'NONE', #78, #137, #80, .T. ) ;
#25 = ORIENTED_EDGE ( 'NONE', *, *, #155, .T. ) ;
#26 = COORDINATED_UNIVERSAL_TIME_OFFSET ( 5, 0, .BEHIND. ) ;
#27 = EDGE_CURVE ( 'NONE', #137, #78, #109, .T. ) ;
#28 = CARTESIAN_POINT ( 'NONE',  ( 0.000000000000000000, 0.000000000000000000, 0.000000000000000000 ) ) ;
#29 = ORIENTED_EDGE ( 'NONE', *, *, #31, .T. ) ;
#30 = APPROVAL_PERSON_ORGANIZATION ( #116, #168, #73 ) ;
#31 = EDGE_CURVE ( 'NONE', #149, #137, #57, .T. ) ;
#32 = DATE_TIME_ROLE ( 'creation_date' ) ;
#33 = APPLICATION_PROTOCOL_DEFINITION ( 'international standard', 'config_control_design', 1994, #132 ) ;
#34 = EDGE_LOOP ( 'NONE', ( #39, #25, #128, #142 ) ) ;
#35 =( GEOMETRIC_REPRESENTATION_CONTEXT ( 3 ) GLOBAL_UNCERTAINTY_ASSIGNED_CONTEXT ( ( #175 ) ) GLOBAL_UNIT_ASSIGNED_CONTEXT ( ( #104, #46, #72 ) ) REPRESENTATION_CONTEXT ( 'NONE', 'WORKASPACE' ) );
#36 = MANIFOLD_SOLID_BREP ( 'Boss-Extrude1', #99 ) ;
#37 = COORDINATED_UNIVERSAL_TIME_OFFSET ( 5, 0, .BEHIND. ) ;
#38 = AXIS2_PLACEMENT_3D ( 'NONE', #162, #85, #45 ) ;
#39 = ORIENTED_EDGE ( 'NONE', *, *, #82, .F. ) ;
#40 = CALENDAR_DATE ( 2021, 9, 8 ) ;
#41 = APPROVAL_DATE_TIME ( #118, #168 ) ;
#42 = ORIENTED_EDGE ( 'NONE', *, *, #27, .F. ) ;
#43 = CARTESIAN_POINT ( 'NONE',  ( 0.000000000000000000, 0.000000000000000000, 6.000000000000000000 ) ) ;
#44 = DATE_TIME_ROLE ( 'classification_date' ) ;
#45 = DIRECTION ( 'NONE',  ( 1.000000000000000000, 0.000000000000000000, -0.000000000000000000 ) ) ;
#46 =( NAMED_UNIT ( * ) PLANE_ANGLE_UNIT ( ) SI_UNIT ( $, .RADIAN. ) );
#47 = CARTESIAN_POINT ( 'NONE',  ( 0.000000000000000000, 0.000000000000000000, 6.000000000000000000 ) ) ;
#48 = EDGE_LOOP ( 'NONE', ( #160, #51 ) ) ;
#49 = SHAPE_DEFINITION_REPRESENTATION ( #119, #140 ) ;
#50 = CC_DESIGN_PERSON_AND_ORGANIZATION_ASSIGNMENT ( #105, #90, ( #22 ) ) ;
#51 = ORIENTED_EDGE ( 'NONE', *, *, #82, .T. ) ;
#52 = DATE_AND_TIME ( #7, #164 ) ;
#53 = VECTOR ( 'NONE', #158, 1000.000000000000000 ) ;
#54 = ADVANCED_FACE ( 'NONE', ( #8 ), #138, .T. ) ;
#55 = COORDINATED_UNIVERSAL_TIME_OFFSET ( 5, 0, .BEHIND. ) ;
#56 = PRODUCT ( 'Web Model 17669_17669', 'Web Model 17669_17669', '', ( #88 ) ) ;
#57 = LINE ( 'NONE', #122, #53 ) ;
#58 = DIRECTION ( 'NONE',  ( 1.000000000000000000, 0.000000000000000000, 0.000000000000000000 ) ) ;
#59 = AXIS2_PLACEMENT_3D ( 'NONE', #47, #136, #58 ) ;
#60 = CARTESIAN_POINT ( 'NONE',  ( 0.000000000000000000, 0.000000000000000000, 6.000000000000000000 ) ) ;
#61 = DIRECTION ( 'NONE',  ( 0.000000000000000000, 0.000000000000000000, 1.000000000000000000 ) ) ;
#62 = APPLICATION_PROTOCOL_DEFINITION ( 'international standard', 'config_control_design', 1994, #17 ) ;
#63 = CALENDAR_DATE ( 2021, 9, 8 ) ;
#64 = AXIS2_PLACEMENT_3D ( 'NONE', #43, #145, #161 ) ;
#65 = LOCAL_TIME ( 12, 49, 22.00000000000000000, #148 ) ;
#66 = CIRCLE ( 'NONE', #111, 50.00000000000000000 ) ;
#67 = PERSON_AND_ORGANIZATION ( #126, #69 ) ;
#68 = EDGE_LOOP ( 'NONE', ( #42, #6 ) ) ;
#69 = ORGANIZATION ( 'UNSPECIFIED', 'UNSPECIFIED', '' ) ;
#70 = PRODUCT_RELATED_PRODUCT_CATEGORY ( 'detail', '', ( #56 ) ) ;
#71 = CC_DESIGN_APPROVAL ( #168, ( #130 ) ) ;
#72 =( NAMED_UNIT ( * ) SI_UNIT ( $, .STERADIAN. ) SOLID_ANGLE_UNIT ( ) );
#73 = APPROVAL_ROLE ( '' ) ;
#74 = APPROVAL_STATUS ( 'not_yet_approved' ) ;
#75 = PERSON_AND_ORGANIZATION ( #126, #69 ) ;
#76 = APPROVAL_STATUS ( 'not_yet_approved' ) ;
#77 = PERSON_AND_ORGANIZATION_ROLE ( 'creator' ) ;
#78 = VERTEX_POINT ( 'NONE', #146 ) ;
#79 = FACE_OUTER_BOUND ( 'NONE', #48, .T. ) ;
#80 = CIRCLE ( 'NONE', #18, 50.00000000000000000 ) ;
#81 = FACE_OUTER_BOUND ( 'NONE', #34, .T. ) ;
#82 = EDGE_CURVE ( 'NONE', #14, #149, #66, .T. ) ;
#83 = CARTESIAN_POINT ( 'NONE',  ( 0.000000000000000000, 0.000000000000000000, 6.000000000000000000 ) ) ;
#84 = AXIS2_PLACEMENT_3D ( 'NONE', #28, #98, #113 ) ;
#85 = DIRECTION ( 'NONE',  ( 0.000000000000000000, 0.000000000000000000, 1.000000000000000000 ) ) ;
#86 = CARTESIAN_POINT ( 'NONE',  ( 50.00000000000000000, 6.123233995736766085E-15, 6.000000000000000000 ) ) ;
#87 = CC_DESIGN_PERSON_AND_ORGANIZATION_ASSIGNMENT ( #75, #147, ( #130 ) ) ;
#88 = MECHANICAL_CONTEXT ( 'NONE', #132, 'mechanical' ) ;
#89 = APPROVAL_ROLE ( '' ) ;
#90 = PERSON_AND_ORGANIZATION_ROLE ( 'design_supplier' ) ;
#91 = APPROVAL_DATE_TIME ( #100, #171 ) ;
#92 = APPROVAL ( #76, 'UNSPECIFIED' ) ;
#93 = ORIENTED_EDGE ( 'NONE', *, *, #155, .F. ) ;
#94 = CALENDAR_DATE ( 2021, 9, 8 ) ;
#95 = ORIENTED_EDGE ( 'NONE', *, *, #170, .F. ) ;
#96 = CC_DESIGN_DATE_AND_TIME_ASSIGNMENT ( #3, #44, ( #120 ) ) ;
#97 = DIRECTION ( 'NONE',  ( -0.000000000000000000, -0.000000000000000000, -1.000000000000000000 ) ) ;
#98 = DIRECTION ( 'NONE',  ( 0.000000000000000000, 0.000000000000000000, 1.000000000000000000 ) ) ;
#99 = CLOSED_SHELL ( 'NONE', ( #157, #54, #112, #156 ) ) ;
#100 = DATE_AND_TIME ( #40, #21 ) ;
#101 = CC_DESIGN_PERSON_AND_ORGANIZATION_ASSIGNMENT ( #154, #77, ( #22 ) ) ;
#102 = CARTESIAN_POINT ( 'NONE',  ( 0.000000000000000000, 0.000000000000000000, 0.000000000000000000 ) ) ;
#103 = DIRECTION ( 'NONE',  ( -0.000000000000000000, -0.000000000000000000, -1.000000000000000000 ) ) ;
#104 =( LENGTH_UNIT ( ) NAMED_UNIT ( * ) SI_UNIT ( .MILLI., .METRE. ) );
#105 = PERSON_AND_ORGANIZATION ( #126, #69 ) ;
#106 = DIRECTION ( 'NONE',  ( 1.000000000000000000, 0.000000000000000000, 0.000000000000000000 ) ) ;
#107 = CC_DESIGN_PERSON_AND_ORGANIZATION_ASSIGNMENT ( #67, #125, ( #120 ) ) ;
#108 = PERSON_AND_ORGANIZATION ( #126, #69 ) ;
#109 = CIRCLE ( 'NONE', #84, 50.00000000000000000 ) ;
#110 = EDGE_LOOP ( 'NONE', ( #93, #95, #29, #124 ) ) ;
#111 = AXIS2_PLACEMENT_3D ( 'NONE', #60, #127, #133 ) ;
#112 = ADVANCED_FACE ( 'NONE', ( #79 ), #174, .T. ) ;
#113 = DIRECTION ( 'NONE',  ( 1.000000000000000000, 0.000000000000000000, 0.000000000000000000 ) ) ;
#114 = AXIS2_PLACEMENT_3D ( 'NONE', #159, #144, #106 ) ;
#115 = APPROVAL_STATUS ( 'not_yet_approved' ) ;
#116 = PERSON_AND_ORGANIZATION ( #126, #69 ) ;
#117 = APPROVAL_PERSON_ORGANIZATION ( #23, #92, #163 ) ;
#118 = DATE_AND_TIME ( #94, #129 ) ;
#119 = PRODUCT_DEFINITION_SHAPE ( 'NONE', 'NONE',  #130 ) ;
#120 = SECURITY_CLASSIFICATION ( '', '', #2 ) ;
#121 = APPROVAL_PERSON_ORGANIZATION ( #108, #171, #89 ) ;
#122 = CARTESIAN_POINT ( 'NONE',  ( -50.00000000000000000, 0.000000000000000000, 6.000000000000000000 ) ) ;
#123 = APPROVAL_DATE_TIME ( #153, #92 ) ;
#124 = ORIENTED_EDGE ( 'NONE', *, *, #27, .T. ) ;
#125 = PERSON_AND_ORGANIZATION_ROLE ( 'classification_officer' ) ;
#126 = PERSON ( 'UNSPECIFIED', 'UNSPECIFIED', 'UNSPECIFIED', ('UNSPECIFIED'), ('UNSPECIFIED'), ('UNSPECIFIED') ) ;
#127 = DIRECTION ( 'NONE',  ( 0.000000000000000000, 0.000000000000000000, 1.000000000000000000 ) ) ;
#128 = ORIENTED_EDGE ( 'NONE', *, *, #24, .T. ) ;
#129 = LOCAL_TIME ( 12, 49, 22.00000000000000000, #26 ) ;
#130 = PRODUCT_DEFINITION ( 'UNKNOWN', '', #22, #13 ) ;
#131 = CALENDAR_DATE ( 2021, 9, 8 ) ;
#132 = APPLICATION_CONTEXT ( 'configuration controlled 3d designs of mechanical parts and assemblies' ) ;
#133 = DIRECTION ( 'NONE',  ( 1.000000000000000000, 0.000000000000000000, 0.000000000000000000 ) ) ;
#134 = PLANE ( 'NONE',  #139 ) ;
#135 = LINE ( 'NONE', #86, #151 ) ;
#136 = DIRECTION ( 'NONE',  ( 0.000000000000000000, 0.000000000000000000, 1.000000000000000000 ) ) ;
#137 = VERTEX_POINT ( 'NONE', #19 ) ;
#138 = CYLINDRICAL_SURFACE ( 'NONE', #152, 50.00000000000000000 ) ;
#139 = AXIS2_PLACEMENT_3D ( 'NONE', #102, #61, #165 ) ;
#140 = ADVANCED_BREP_SHAPE_REPRESENTATION ( 'Web Model 17669_17669', ( #36, #114 ), #35 ) ;
#141 = PERSON_AND_ORGANIZATION ( #126, #69 ) ;
#142 = ORIENTED_EDGE ( 'NONE', *, *, #31, .F. ) ;
#143 = CYLINDRICAL_SURFACE ( 'NONE', #64, 50.00000000000000000 ) ;
#144 = DIRECTION ( 'NONE',  ( 0.000000000000000000, 0.000000000000000000, 1.000000000000000000 ) ) ;
#145 = DIRECTION ( 'NONE',  ( -0.000000000000000000, -0.000000000000000000, -1.000000000000000000 ) ) ;
#146 = CARTESIAN_POINT ( 'NONE',  ( 50.00000000000000000, 6.123233995736766085E-15, 0.000000000000000000 ) ) ;
#147 = PERSON_AND_ORGANIZATION_ROLE ( 'creator' ) ;
#148 = COORDINATED_UNIVERSAL_TIME_OFFSET ( 5, 0, .BEHIND. ) ;
#149 = VERTEX_POINT ( 'NONE', #20 ) ;
#150 = CC_DESIGN_PERSON_AND_ORGANIZATION_ASSIGNMENT ( #141, #1, ( #56 ) ) ;
#151 = VECTOR ( 'NONE', #103, 1000.000000000000000 ) ;
#152 = AXIS2_PLACEMENT_3D ( 'NONE', #83, #97, #169 ) ;
#153 = DATE_AND_TIME ( #131, #15 ) ;
#154 = PERSON_AND_ORGANIZATION ( #126, #69 ) ;
#155 = EDGE_CURVE ( 'NONE', #14, #78, #135, .T. ) ;
#156 = ADVANCED_FACE ( 'NONE', ( #16 ), #134, .F. ) ;
#157 = ADVANCED_FACE ( 'NONE', ( #81 ), #143, .T. ) ;
#158 = DIRECTION ( 'NONE',  ( -0.000000000000000000, -0.000000000000000000, -1.000000000000000000 ) ) ;
#159 = CARTESIAN_POINT ( 'NONE',  ( 0.000000000000000000, 0.000000000000000000, 0.000000000000000000 ) ) ;
#160 = ORIENTED_EDGE ( 'NONE', *, *, #170, .T. ) ;
#161 = DIRECTION ( 'NONE',  ( -1.000000000000000000, 0.000000000000000000, 0.000000000000000000 ) ) ;
#162 = CARTESIAN_POINT ( 'NONE',  ( 0.000000000000000000, 0.000000000000000000, 6.000000000000000000 ) ) ;
#163 = APPROVAL_ROLE ( '' ) ;
#164 = LOCAL_TIME ( 12, 49, 22.00000000000000000, #37 ) ;
#165 = DIRECTION ( 'NONE',  ( 1.000000000000000000, 0.000000000000000000, -0.000000000000000000 ) ) ;
#166 = CC_DESIGN_DATE_AND_TIME_ASSIGNMENT ( #52, #32, ( #130 ) ) ;
#167 = COORDINATED_UNIVERSAL_TIME_OFFSET ( 5, 0, .BEHIND. ) ;
#168 = APPROVAL ( #115, 'UNSPECIFIED' ) ;
#169 = DIRECTION ( 'NONE',  ( -1.000000000000000000, 0.000000000000000000, 0.000000000000000000 ) ) ;
#170 = EDGE_CURVE ( 'NONE', #149, #14, #4, .T. ) ;
#171 = APPROVAL ( #74, 'UNSPECIFIED' ) ;
#172 = DIRECTION ( 'NONE',  ( 0.000000000000000000, 0.000000000000000000, 1.000000000000000000 ) ) ;
#173 = DIRECTION ( 'NONE',  ( 1.000000000000000000, 0.000000000000000000, 0.000000000000000000 ) ) ;
#174 = PLANE ( 'NONE',  #38 ) ;
#175 = UNCERTAINTY_MEASURE_WITH_UNIT (LENGTH_MEASURE( 1.000000000000000082E-05 ), #104, 'distance_accuracy_value', 'NONE');
ENDSEC;
END-ISO-10303-21;
