ISO-10303-21;
HEADER;
FILE_DESCRIPTION (( 'STEP AP203' ),
    '1' );
FILE_NAME ('ISP Wedged Parts_19718.step',
    '2021-10-06T20:50:50',
    ( '' ),
    ( '' ),
    'SwSTEP 2.0',
    'SolidWorks 2018',
    '' );
FILE_SCHEMA (( 'CONFIG_CONTROL_DESIGN' ));
ENDSEC;

DATA;
#1 = CALENDAR_DATE ( 2021, 6, 10 ) ;
#2 = CARTESIAN_POINT ( 'NONE',  ( 0.000000000000000000, 0.000000000000000000, 2.000000000000000000 ) ) ;
#3 = FACE_OUTER_BOUND ( 'NONE', #55, .T. ) ;
#4 = APPROVAL ( #82, 'UNSPECIFIED' ) ;
#5 = CC_DESIGN_PERSON_AND_ORGANIZATION_ASSIGNMENT ( #57, #69, ( #171 ) ) ;
#6 = VECTOR ( 'NONE', #132, 1000.000000000000000 ) ;
#7 = DIRECTION ( 'NONE',  ( -0.000000000000000000, -0.000000000000000000, -1.000000000000000000 ) ) ;
#8 = DIRECTION ( 'NONE',  ( -0.000000000000000000, -0.000000000000000000, -1.000000000000000000 ) ) ;
#9 = ORIENTED_EDGE ( 'NONE', *, *, #152, .F. ) ;
#10 = PERSON ( 'UNSPECIFIED', 'UNSPECIFIED', 'UNSPECIFIED', ('UNSPECIFIED'), ('UNSPECIFIED'), ('UNSPECIFIED') ) ;
#11 = AXIS2_PLACEMENT_3D ( 'NONE', #2, #166, #91 ) ;
#12 = DATE_TIME_ROLE ( 'classification_date' ) ;
#13 = ORIENTED_EDGE ( 'NONE', *, *, #26, .F. ) ;
#14 = APPLICATION_PROTOCOL_DEFINITION ( 'international standard', 'config_control_design', 1994, #54 ) ;
#15 = VERTEX_POINT ( 'NONE', #138 ) ;
#16 = CC_DESIGN_PERSON_AND_ORGANIZATION_ASSIGNMENT ( #39, #157, ( #78 ) ) ;
#17 = LOCAL_TIME ( 16, 50, 50.00000000000000000, #122 ) ;
#18 = CARTESIAN_POINT ( 'NONE',  ( 0.000000000000000000, 0.000000000000000000, 2.000000000000000000 ) ) ;
#19 = SHAPE_DEFINITION_REPRESENTATION ( #135, #21 ) ;
#20 = DIRECTION ( 'NONE',  ( -1.000000000000000000, 0.000000000000000000, 0.000000000000000000 ) ) ;
#21 = ADVANCED_BREP_SHAPE_REPRESENTATION ( 'ISP Wedged Parts_19718', ( #163, #87 ), #85 ) ;
#22 =( NAMED_UNIT ( * ) SI_UNIT ( $, .STERADIAN. ) SOLID_ANGLE_UNIT ( ) );
#23 = FACE_OUTER_BOUND ( 'NONE', #71, .T. ) ;
#24 = CC_DESIGN_PERSON_AND_ORGANIZATION_ASSIGNMENT ( #137, #96, ( #33 ) ) ;
#25 = DATE_AND_TIME ( #1, #65 ) ;
#26 = EDGE_CURVE ( 'NONE', #167, #15, #130, .T. ) ;
#27 = ORIENTED_EDGE ( 'NONE', *, *, #30, .F. ) ;
#28 = LOCAL_TIME ( 16, 50, 50.00000000000000000, #51 ) ;
#29 = CC_DESIGN_APPROVAL ( #34, ( #94 ) ) ;
#30 = EDGE_CURVE ( 'NONE', #105, #167, #42, .T. ) ;
#31 = CARTESIAN_POINT ( 'NONE',  ( 6.349999999999999645, 7.776507174585692163E-16, 0.3327893984472669597 ) ) ;
#32 = APPROVAL_DATE_TIME ( #103, #4 ) ;
#33 = SECURITY_CLASSIFICATION ( '', '', #168 ) ;
#34 = APPROVAL ( #111, 'UNSPECIFIED' ) ;
#35 = APPROVAL_DATE_TIME ( #92, #107 ) ;
#36 = CC_DESIGN_SECURITY_CLASSIFICATION ( #33, ( #78 ) ) ;
#37 = DIRECTION ( 'NONE',  ( 0.000000000000000000, 0.000000000000000000, 1.000000000000000000 ) ) ;
#38 =( LENGTH_UNIT ( ) NAMED_UNIT ( * ) SI_UNIT ( .MILLI., .METRE. ) );
#39 = PERSON_AND_ORGANIZATION ( #10, #50 ) ;
#40 = ADVANCED_FACE ( 'NONE', ( #75 ), #104, .T. ) ;
#41 = PERSON_AND_ORGANIZATION_ROLE ( 'creator' ) ;
#42 = CIRCLE ( 'NONE', #11, 6.349999999999999645 ) ;
#43 = CC_DESIGN_APPROVAL ( #107, ( #33 ) ) ;
#44 = ORIENTED_EDGE ( 'NONE', *, *, #175, .F. ) ;
#45 = CALENDAR_DATE ( 2021, 6, 10 ) ;
#46 = ORIENTED_EDGE ( 'NONE', *, *, #152, .T. ) ;
#47 = CARTESIAN_POINT ( 'NONE',  ( -6.349999999999999645, 0.000000000000000000, 2.000000000000000000 ) ) ;
#48 = CARTESIAN_POINT ( 'NONE',  ( -6.349999999999999645, -6.349999999999999645, 0.6655787968945334754 ) ) ;
#49 = DESIGN_CONTEXT ( 'detailed design', #54, 'design' ) ;
#50 = ORGANIZATION ( 'UNSPECIFIED', 'UNSPECIFIED', '' ) ;
#51 = COORDINATED_UNIVERSAL_TIME_OFFSET ( 5, 0, .BEHIND. ) ;
#52 = CARTESIAN_POINT ( 'NONE',  ( -6.349999999999999645, 0.000000000000000000, 2.000000000000000000 ) ) ;
#53 = CARTESIAN_POINT ( 'NONE',  ( 0.000000000000000000, 0.000000000000000000, 0.000000000000000000 ) ) ;
#54 = APPLICATION_CONTEXT ( 'configuration controlled 3d designs of mechanical parts and assemblies' ) ;
#55 = EDGE_LOOP ( 'NONE', ( #58, #9 ) ) ;
#56 = CARTESIAN_POINT ( 'NONE',  ( -6.350000000000002309, -12.70000000000000462, 0.9983681953418003241 ) ) ;
#57 = PERSON_AND_ORGANIZATION ( #10, #50 ) ;
#58 = ORIENTED_EDGE ( 'NONE', *, *, #164, .F. ) ;
#59 = DATE_AND_TIME ( #160, #158 ) ;
#60 = EDGE_CURVE ( 'NONE', #167, #105, #146, .T. ) ;
#61 = DIRECTION ( 'NONE',  ( 1.000000000000000000, 0.000000000000000000, 0.000000000000000000 ) ) ;
#62 = VERTEX_POINT ( 'NONE', #31 ) ;
#63 = DATE_AND_TIME ( #45, #28 ) ;
#64 = DIRECTION ( 'NONE',  ( -0.000000000000000000, -0.000000000000000000, -1.000000000000000000 ) ) ;
#65 = LOCAL_TIME ( 16, 50, 50.00000000000000000, #123 ) ;
#66 = PERSON_AND_ORGANIZATION_ROLE ( 'creator' ) ;
#67 = CLOSED_SHELL ( 'NONE', ( #149, #159, #40, #147 ) ) ;
#68 = MECHANICAL_CONTEXT ( 'NONE', #97, 'mechanical' ) ;
#69 = PERSON_AND_ORGANIZATION_ROLE ( 'design_owner' ) ;
#70 = AXIS2_PLACEMENT_3D ( 'NONE', #48, #155, #76 ) ;
#71 = EDGE_LOOP ( 'NONE', ( #27, #142, #46, #13 ) ) ;
#72 =( BOUNDED_CURVE ( )  B_SPLINE_CURVE ( 3, ( #99, #56, #84, #172 ),
 .UNSPECIFIED., .F., .F. ) 
 B_SPLINE_CURVE_WITH_KNOTS ( ( 4, 4 ),
 ( 1.570796326794896558, 4.712388980384689674 ),
 .UNSPECIFIED. ) 
 CURVE ( )  GEOMETRIC_REPRESENTATION_ITEM ( )  RATIONAL_B_SPLINE_CURVE ( ( 1.000000000000000000, 0.3333333333333333703, 0.3333333333333333703, 1.000000000000000000 ) ) 
 REPRESENTATION_ITEM ( '' )  );
#73 = LINE ( 'NONE', #77, #6 ) ;
#74 = CALENDAR_DATE ( 2021, 6, 10 ) ;
#75 = FACE_OUTER_BOUND ( 'NONE', #120, .T. ) ;
#76 = DIRECTION ( 'NONE',  ( 0.000000000000000000, -0.9986295347545742773, 0.05233595624293679166 ) ) ;
#77 = CARTESIAN_POINT ( 'NONE',  ( 6.349999999999999645, 7.776507174585692163E-16, 2.000000000000000000 ) ) ;
#78 = PRODUCT_DEFINITION_FORMATION_WITH_SPECIFIED_SOURCE ( 'ANY', '', #171, .NOT_KNOWN. ) ;
#79 = AXIS2_PLACEMENT_3D ( 'NONE', #95, #7, #143 ) ;
#80 = VECTOR ( 'NONE', #64, 1000.000000000000000 ) ;
#81 = DIRECTION ( 'NONE',  ( 1.000000000000000000, 0.000000000000000000, 0.000000000000000000 ) ) ;
#82 = APPROVAL_STATUS ( 'not_yet_approved' ) ;
#83 = ORIENTED_EDGE ( 'NONE', *, *, #164, .T. ) ;
#84 = CARTESIAN_POINT ( 'NONE',  ( 6.349999999999996980, -12.70000000000000462, 0.9983681953418006572 ) ) ;
#85 =( GEOMETRIC_REPRESENTATION_CONTEXT ( 3 ) GLOBAL_UNCERTAINTY_ASSIGNED_CONTEXT ( ( #93 ) ) GLOBAL_UNIT_ASSIGNED_CONTEXT ( ( #38, #174, #22 ) ) REPRESENTATION_CONTEXT ( 'NONE', 'WORKASPACE' ) );
#86 = APPROVAL_PERSON_ORGANIZATION ( #162, #107, #109 ) ;
#87 = AXIS2_PLACEMENT_3D ( 'NONE', #53, #37, #81 ) ;
#88 = ORIENTED_EDGE ( 'NONE', *, *, #30, .T. ) ;
#89 = DIRECTION ( 'NONE',  ( 0.000000000000000000, 0.000000000000000000, 1.000000000000000000 ) ) ;
#90 = AXIS2_PLACEMENT_3D ( 'NONE', #127, #8, #20 ) ;
#91 = DIRECTION ( 'NONE',  ( 1.000000000000000000, 0.000000000000000000, 0.000000000000000000 ) ) ;
#92 = DATE_AND_TIME ( #148, #98 ) ;
#93 = UNCERTAINTY_MEASURE_WITH_UNIT (LENGTH_MEASURE( 1.000000000000000082E-05 ), #38, 'distance_accuracy_value', 'NONE');
#94 = PRODUCT_DEFINITION ( 'UNKNOWN', '', #78, #49 ) ;
#95 = CARTESIAN_POINT ( 'NONE',  ( 0.000000000000000000, 0.000000000000000000, 2.000000000000000000 ) ) ;
#96 = PERSON_AND_ORGANIZATION_ROLE ( 'classification_officer' ) ;
#97 = APPLICATION_CONTEXT ( 'configuration controlled 3d designs of mechanical parts and assemblies' ) ;
#98 = LOCAL_TIME ( 16, 50, 50.00000000000000000, #126 ) ;
#99 = CARTESIAN_POINT ( 'NONE',  ( -6.349999999999999645, 0.000000000000000000, 0.3327893984472669597 ) ) ;
#100 = CC_DESIGN_PERSON_AND_ORGANIZATION_ASSIGNMENT ( #121, #66, ( #78 ) ) ;
#101 = APPROVAL_PERSON_ORGANIZATION ( #102, #4, #133 ) ;
#102 = PERSON_AND_ORGANIZATION ( #10, #50 ) ;
#103 = DATE_AND_TIME ( #74, #17 ) ;
#104 = PLANE ( 'NONE',  #125 ) ;
#105 = VERTEX_POINT ( 'NONE', #116 ) ;
#106 = CARTESIAN_POINT ( 'NONE',  ( -6.349999999999999645, 12.70000000000000462, -0.3327893984472666267 ) ) ;
#107 = APPROVAL ( #108, 'UNSPECIFIED' ) ;
#108 = APPROVAL_STATUS ( 'not_yet_approved' ) ;
#109 = APPROVAL_ROLE ( '' ) ;
#110 = CC_DESIGN_APPROVAL ( #4, ( #78 ) ) ;
#111 = APPROVAL_STATUS ( 'not_yet_approved' ) ;
#112 = APPROVAL_ROLE ( '' ) ;
#113 = CC_DESIGN_DATE_AND_TIME_ASSIGNMENT ( #59, #145, ( #94 ) ) ;
#114 = APPROVAL_DATE_TIME ( #25, #34 ) ;
#115 = PLANE ( 'NONE',  #70 ) ;
#116 = CARTESIAN_POINT ( 'NONE',  ( 6.349999999999999645, 7.776507174585692163E-16, 2.000000000000000000 ) ) ;
#117 = PRODUCT_RELATED_PRODUCT_CATEGORY ( 'detail', '', ( #171 ) ) ;
#118 = CARTESIAN_POINT ( 'NONE',  ( -6.349999999999999645, 0.000000000000000000, 0.3327893984472669597 ) ) ;
#119 = APPLICATION_PROTOCOL_DEFINITION ( 'international standard', 'config_control_design', 1994, #97 ) ;
#120 = EDGE_LOOP ( 'NONE', ( #151, #88 ) ) ;
#121 = PERSON_AND_ORGANIZATION ( #10, #50 ) ;
#122 = COORDINATED_UNIVERSAL_TIME_OFFSET ( 5, 0, .BEHIND. ) ;
#123 = COORDINATED_UNIVERSAL_TIME_OFFSET ( 5, 0, .BEHIND. ) ;
#124 = FACE_OUTER_BOUND ( 'NONE', #136, .T. ) ;
#125 = AXIS2_PLACEMENT_3D ( 'NONE', #18, #153, #165 ) ;
#126 = COORDINATED_UNIVERSAL_TIME_OFFSET ( 5, 0, .BEHIND. ) ;
#127 = CARTESIAN_POINT ( 'NONE',  ( 0.000000000000000000, 0.000000000000000000, 2.000000000000000000 ) ) ;
#128 = CC_DESIGN_PERSON_AND_ORGANIZATION_ASSIGNMENT ( #134, #41, ( #94 ) ) ;
#129 = CARTESIAN_POINT ( 'NONE',  ( 6.349999999999999645, 7.776507174585692163E-16, 0.3327893984472669597 ) ) ;
#130 = LINE ( 'NONE', #47, #80 ) ;
#131 = PERSON_AND_ORGANIZATION ( #10, #50 ) ;
#132 = DIRECTION ( 'NONE',  ( -0.000000000000000000, -0.000000000000000000, -1.000000000000000000 ) ) ;
#133 = APPROVAL_ROLE ( '' ) ;
#134 = PERSON_AND_ORGANIZATION ( #10, #50 ) ;
#135 = PRODUCT_DEFINITION_SHAPE ( 'NONE', 'NONE',  #94 ) ;
#136 = EDGE_LOOP ( 'NONE', ( #44, #169, #173, #83 ) ) ;
#137 = PERSON_AND_ORGANIZATION ( #10, #50 ) ;
#138 = CARTESIAN_POINT ( 'NONE',  ( -6.349999999999999645, 0.000000000000000000, 0.3327893984472669597 ) ) ;
#139 = CYLINDRICAL_SURFACE ( 'NONE', #90, 6.349999999999999645 ) ;
#140 = CARTESIAN_POINT ( 'NONE',  ( 0.000000000000000000, 0.000000000000000000, 2.000000000000000000 ) ) ;
#141 = COORDINATED_UNIVERSAL_TIME_OFFSET ( 5, 0, .BEHIND. ) ;
#142 = ORIENTED_EDGE ( 'NONE', *, *, #175, .T. ) ;
#143 = DIRECTION ( 'NONE',  ( -1.000000000000000000, 0.000000000000000000, 0.000000000000000000 ) ) ;
#144 = AXIS2_PLACEMENT_3D ( 'NONE', #140, #89, #61 ) ;
#145 = DATE_TIME_ROLE ( 'creation_date' ) ;
#146 = CIRCLE ( 'NONE', #144, 6.349999999999999645 ) ;
#147 = ADVANCED_FACE ( 'NONE', ( #3 ), #115, .F. ) ;
#148 = CALENDAR_DATE ( 2021, 6, 10 ) ;
#149 = ADVANCED_FACE ( 'NONE', ( #23 ), #161, .T. ) ;
#150 = CC_DESIGN_DATE_AND_TIME_ASSIGNMENT ( #63, #12, ( #33 ) ) ;
#151 = ORIENTED_EDGE ( 'NONE', *, *, #60, .T. ) ;
#152 = EDGE_CURVE ( 'NONE', #62, #15, #154, .T. ) ;
#153 = DIRECTION ( 'NONE',  ( 0.000000000000000000, 0.000000000000000000, 1.000000000000000000 ) ) ;
#154 =( BOUNDED_CURVE ( )  B_SPLINE_CURVE ( 3, ( #129, #156, #106, #118 ),
 .UNSPECIFIED., .F., .F. ) 
 B_SPLINE_CURVE_WITH_KNOTS ( ( 4, 4 ),
 ( 4.712388980384689674, 7.853981633974482790 ),
 .UNSPECIFIED. ) 
 CURVE ( )  GEOMETRIC_REPRESENTATION_ITEM ( )  RATIONAL_B_SPLINE_CURVE ( ( 1.000000000000000000, 0.3333333333333333703, 0.3333333333333333703, 1.000000000000000000 ) ) 
 REPRESENTATION_ITEM ( '' )  );
#155 = DIRECTION ( 'NONE',  ( 0.000000000000000000, 0.05233595624293679166, 0.9986295347545742773 ) ) ;
#156 = CARTESIAN_POINT ( 'NONE',  ( 6.350000000000002309, 12.69999999999999929, -0.3327893984472665712 ) ) ;
#157 = PERSON_AND_ORGANIZATION_ROLE ( 'design_supplier' ) ;
#158 = LOCAL_TIME ( 16, 50, 50.00000000000000000, #141 ) ;
#159 = ADVANCED_FACE ( 'NONE', ( #124 ), #139, .T. ) ;
#160 = CALENDAR_DATE ( 2021, 6, 10 ) ;
#161 = CYLINDRICAL_SURFACE ( 'NONE', #79, 6.349999999999999645 ) ;
#162 = PERSON_AND_ORGANIZATION ( #10, #50 ) ;
#163 = MANIFOLD_SOLID_BREP ( 'Cut-Extrude1', #67 ) ;
#164 = EDGE_CURVE ( 'NONE', #15, #62, #72, .T. ) ;
#165 = DIRECTION ( 'NONE',  ( 1.000000000000000000, 0.000000000000000000, -0.000000000000000000 ) ) ;
#166 = DIRECTION ( 'NONE',  ( 0.000000000000000000, 0.000000000000000000, 1.000000000000000000 ) ) ;
#167 = VERTEX_POINT ( 'NONE', #52 ) ;
#168 = SECURITY_CLASSIFICATION_LEVEL ( 'unclassified' ) ;
#169 = ORIENTED_EDGE ( 'NONE', *, *, #60, .F. ) ;
#170 = APPROVAL_PERSON_ORGANIZATION ( #131, #34, #112 ) ;
#171 = PRODUCT ( 'ISP Wedged Parts_19718', 'ISP Wedged Parts_19718', '', ( #68 ) ) ;
#172 = CARTESIAN_POINT ( 'NONE',  ( 6.349999999999999645, 7.776507174585692163E-16, 0.3327893984472669597 ) ) ;
#173 = ORIENTED_EDGE ( 'NONE', *, *, #26, .T. ) ;
#174 =( NAMED_UNIT ( * ) PLANE_ANGLE_UNIT ( ) SI_UNIT ( $, .RADIAN. ) );
#175 = EDGE_CURVE ( 'NONE', #105, #62, #73, .T. ) ;
ENDSEC;
END-ISO-10303-21;
