ISO-10303-21;
HEADER;
FILE_DESCRIPTION (( 'STEP AP203' ),
    '1' );
FILE_NAME ('Web Model 84488_48191.step',
    '2017-05-19T14:57:22',
    ( '' ),
    ( '' ),
    'SwSTEP 2.0',
    'SolidWorks 2016',
    '' );
FILE_SCHEMA (( 'CONFIG_CONTROL_DESIGN' ));
ENDSEC;

DATA;
#1 = DATE_AND_TIME ( #63, #157 ) ;
#2 = MANIFOLD_SOLID_BREP ( 'Extrude1', #121 ) ;
#3 = LINE ( 'NONE', #169, #55 ) ;
#4 = CC_DESIGN_APPROVAL ( #224, ( #185 ) ) ;
#5 = VECTOR ( 'NONE', #214, 1000.000000000000000 ) ;
#6 = EDGE_LOOP ( 'NONE', ( #56, #36, #160, #109 ) ) ;
#7 = VERTEX_POINT ( 'NONE', #30 ) ;
#8 = APPROVAL_PERSON_ORGANIZATION ( #180, #224, #138 ) ;
#9 = EDGE_CURVE ( 'NONE', #89, #164, #34, .T. ) ;
#10 = ADVANCED_FACE ( 'NONE', ( #73 ), #96, .F. ) ;
#11 = APPROVAL_DATE_TIME ( #181, #191 ) ;
#12 = DIRECTION ( 'NONE',  ( -1.387778780781445700E-016, 1.000000000000000000, 0.0000000000000000000 ) ) ;
#13 = CARTESIAN_POINT ( 'NONE',  ( -12.49999999999999600, -12.50000000000000500, 0.0000000000000000000 ) ) ;
#14 = DIRECTION ( 'NONE',  ( -0.0000000000000000000, -0.0000000000000000000, -1.000000000000000000 ) ) ;
#15 = VECTOR ( 'NONE', #152, 1000.000000000000000 ) ;
#16 = ORIENTED_EDGE ( 'NONE', *, *, #159, .F. ) ;
#17 = CARTESIAN_POINT ( 'NONE',  ( -12.50000000000000000, 12.49999999999999600, 0.0000000000000000000 ) ) ;
#18 = DIRECTION ( 'NONE',  ( 0.0000000000000000000, 0.0000000000000000000, 1.000000000000000000 ) ) ;
#19 = PERSON ( 'UNSPECIFIED', 'UNSPECIFIED', 'UNSPECIFIED', ('UNSPECIFIED'), ('UNSPECIFIED'), ('UNSPECIFIED') ) ;
#20 = CC_DESIGN_PERSON_AND_ORGANIZATION_ASSIGNMENT ( #161, #51, ( #185 ) ) ;
#21 = PERSON_AND_ORGANIZATION_ROLE ( 'classification_officer' ) ;
#22 = ORIENTED_EDGE ( 'NONE', *, *, #72, .T. ) ;
#23 = APPROVAL_DATE_TIME ( #200, #224 ) ;
#24 = EDGE_CURVE ( 'NONE', #177, #128, #3, .T. ) ;
#25 = EDGE_LOOP ( 'NONE', ( #136, #16, #38, #150 ) ) ;
#26 = AXIS2_PLACEMENT_3D ( 'NONE', #91, #182, #176 ) ;
#27 = CARTESIAN_POINT ( 'NONE',  ( 12.50000000000000000, 12.49999999999999600, 2.000000000000000000 ) ) ;
#28 = PLANE ( 'NONE',  #193 ) ;
#29 = VECTOR ( 'NONE', #64, 1000.000000000000000 ) ;
#30 = CARTESIAN_POINT ( 'NONE',  ( 12.50000000000000400, -12.50000000000000500, 0.0000000000000000000 ) ) ;
#31 = CARTESIAN_POINT ( 'NONE',  ( 12.50000000000000400, -12.50000000000000500, 2.000000000000000000 ) ) ;
#32 = EDGE_CURVE ( 'NONE', #107, #164, #220, .T. ) ;
#33 = PERSON_AND_ORGANIZATION_ROLE ( 'design_owner' ) ;
#34 = LINE ( 'NONE', #209, #108 ) ;
#35 =( GEOMETRIC_REPRESENTATION_CONTEXT ( 3 ) GLOBAL_UNCERTAINTY_ASSIGNED_CONTEXT ( ( #237 ) ) GLOBAL_UNIT_ASSIGNED_CONTEXT ( ( #99, #65, #202 ) ) REPRESENTATION_CONTEXT ( 'NONE', 'WORKASPACE' ) );
#36 = ORIENTED_EDGE ( 'NONE', *, *, #32, .F. ) ;
#37 = FACE_OUTER_BOUND ( 'NONE', #25, .T. ) ;
#38 = ORIENTED_EDGE ( 'NONE', *, *, #144, .F. ) ;
#39 = COORDINATED_UNIVERSAL_TIME_OFFSET ( 5, 0, .BEHIND. ) ;
#40 = LOCAL_TIME ( 10, 57, 22.00000000000000000, #184 ) ;
#41 = ADVANCED_FACE ( 'NONE', ( #94 ), #170, .F. ) ;
#42 = ORIENTED_EDGE ( 'NONE', *, *, #135, .F. ) ;
#43 = DIRECTION ( 'NONE',  ( -0.0000000000000000000, 0.0000000000000000000, 1.000000000000000000 ) ) ;
#44 = CARTESIAN_POINT ( 'NONE',  ( 12.50000000000000400, -12.50000000000000500, 2.000000000000000000 ) ) ;
#45 = AXIS2_PLACEMENT_3D ( 'NONE', #114, #194, #12 ) ;
#46 = SHAPE_DEFINITION_REPRESENTATION ( #125, #67 ) ;
#47 = CARTESIAN_POINT ( 'NONE',  ( -12.50000000000000000, 12.49999999999999600, 2.000000000000000000 ) ) ;
#48 = LINE ( 'NONE', #52, #122 ) ;
#49 = DIRECTION ( 'NONE',  ( -1.000000000000000000, -1.387778780781445700E-016, 0.0000000000000000000 ) ) ;
#50 = CALENDAR_DATE ( 2017, 19, 5 ) ;
#51 = PERSON_AND_ORGANIZATION_ROLE ( 'creator' ) ;
#52 = CARTESIAN_POINT ( 'NONE',  ( -12.50000000000000000, 12.49999999999999600, 2.000000000000000000 ) ) ;
#53 = SECURITY_CLASSIFICATION ( '', '', #179 ) ;
#54 = PERSON_AND_ORGANIZATION ( #19, #101 ) ;
#55 = VECTOR ( 'NONE', #130, 1000.000000000000000 ) ;
#56 = ORIENTED_EDGE ( 'NONE', *, *, #9, .T. ) ;
#57 = EDGE_CURVE ( 'NONE', #128, #233, #163, .T. ) ;
#58 = ORIENTED_EDGE ( 'NONE', *, *, #24, .F. ) ;
#59 = CARTESIAN_POINT ( 'NONE',  ( -12.49999999999999600, -12.50000000000000500, 2.000000000000000000 ) ) ;
#60 = DIRECTION ( 'NONE',  ( 1.000000000000000000, 0.0000000000000000000, 0.0000000000000000000 ) ) ;
#61 = DIRECTION ( 'NONE',  ( 1.000000000000000000, 0.0000000000000000000, 0.0000000000000000000 ) ) ;
#62 = CARTESIAN_POINT ( 'NONE',  ( -12.49999999999999600, -12.50000000000000500, 2.000000000000000000 ) ) ;
#63 = CALENDAR_DATE ( 2017, 19, 5 ) ;
#64 = DIRECTION ( 'NONE',  ( -1.000000000000000000, -0.0000000000000000000, -0.0000000000000000000 ) ) ;
#65 =( NAMED_UNIT ( * ) PLANE_ANGLE_UNIT ( ) SI_UNIT ( $, .RADIAN. ) );
#66 = PERSON_AND_ORGANIZATION ( #19, #101 ) ;
#67 = ADVANCED_BREP_SHAPE_REPRESENTATION ( 'Web Model 84488_48191', ( #2, #207 ), #35 ) ;
#68 = DATE_TIME_ROLE ( 'creation_date' ) ;
#69 = PERSON_AND_ORGANIZATION ( #19, #101 ) ;
#70 = APPLICATION_CONTEXT ( 'configuration controlled 3d designs of mechanical parts and assemblies' ) ;
#71 = CC_DESIGN_PERSON_AND_ORGANIZATION_ASSIGNMENT ( #54, #158, ( #124 ) ) ;
#72 = EDGE_CURVE ( 'NONE', #128, #127, #115, .T. ) ;
#73 = FACE_OUTER_BOUND ( 'NONE', #6, .T. ) ;
#74 = FACE_OUTER_BOUND ( 'NONE', #218, .T. ) ;
#75 = FACE_OUTER_BOUND ( 'NONE', #195, .T. ) ;
#76 = CC_DESIGN_PERSON_AND_ORGANIZATION_ASSIGNMENT ( #106, #21, ( #53 ) ) ;
#77 = EDGE_CURVE ( 'NONE', #233, #89, #217, .T. ) ;
#78 = LINE ( 'NONE', #149, #145 ) ;
#79 = EDGE_LOOP ( 'NONE', ( #88, #126, #42, #178 ) ) ;
#80 = CARTESIAN_POINT ( 'NONE',  ( 12.50000000000000000, 12.49999999999999600, 0.0000000000000000000 ) ) ;
#81 = DIRECTION ( 'NONE',  ( 0.0000000000000000000, -1.000000000000000000, 0.0000000000000000000 ) ) ;
#82 = ORIENTED_EDGE ( 'NONE', *, *, #159, .T. ) ;
#83 = DIRECTION ( 'NONE',  ( -0.0000000000000000000, 0.0000000000000000000, 1.000000000000000000 ) ) ;
#84 = DATE_AND_TIME ( #165, #40 ) ;
#85 = CARTESIAN_POINT ( 'NONE',  ( 0.0000000000000000000, 0.0000000000000000000, 0.0000000000000000000 ) ) ;
#86 = CC_DESIGN_PERSON_AND_ORGANIZATION_ASSIGNMENT ( #69, #92, ( #124 ) ) ;
#87 = APPROVAL_ROLE ( '' ) ;
#88 = ORIENTED_EDGE ( 'NONE', *, *, #9, .F. ) ;
#89 = VERTEX_POINT ( 'NONE', #226 ) ;
#90 = DIRECTION ( 'NONE',  ( -1.000000000000000000, -0.0000000000000000000, -0.0000000000000000000 ) ) ;
#91 = CARTESIAN_POINT ( 'NONE',  ( -12.49999999999999600, -12.50000000000000500, 2.000000000000000000 ) ) ;
#92 = PERSON_AND_ORGANIZATION_ROLE ( 'design_supplier' ) ;
#93 = VECTOR ( 'NONE', #90, 1000.000000000000000 ) ;
#94 = FACE_OUTER_BOUND ( 'NONE', #201, .T. ) ;
#95 = ADVANCED_FACE ( 'NONE', ( #143 ), #171, .F. ) ;
#96 = PLANE ( 'NONE',  #45 ) ;
#97 = DIRECTION ( 'NONE',  ( 0.0000000000000000000, -0.0000000000000000000, -1.000000000000000000 ) ) ;
#98 = PLANE ( 'NONE',  #153 ) ;
#99 =( LENGTH_UNIT ( ) NAMED_UNIT ( * ) SI_UNIT ( .MILLI., .METRE. ) );
#100 = EDGE_CURVE ( 'NONE', #164, #7, #187, .T. ) ;
#101 = ORGANIZATION ( 'UNSPECIFIED', 'UNSPECIFIED', '' ) ;
#102 = DATE_TIME_ROLE ( 'classification_date' ) ;
#103 = APPROVAL_PERSON_ORGANIZATION ( #66, #111, #87 ) ;
#104 = MECHANICAL_CONTEXT ( 'NONE', #142, 'mechanical' ) ;
#105 = VECTOR ( 'NONE', #212, 1000.000000000000000 ) ;
#106 = PERSON_AND_ORGANIZATION ( #19, #101 ) ;
#107 = VERTEX_POINT ( 'NONE', #62 ) ;
#108 = VECTOR ( 'NONE', #227, 1000.000000000000000 ) ;
#109 = ORIENTED_EDGE ( 'NONE', *, *, #77, .T. ) ;
#110 = ADVANCED_FACE ( 'NONE', ( #75 ), #28, .T. ) ;
#111 = APPROVAL ( #203, 'UNSPECIFIED' ) ;
#112 = DIRECTION ( 'NONE',  ( 1.000000000000000000, 0.0000000000000000000, 0.0000000000000000000 ) ) ;
#113 = CARTESIAN_POINT ( 'NONE',  ( -12.49999999999999600, -12.50000000000000500, 0.0000000000000000000 ) ) ;
#114 = CARTESIAN_POINT ( 'NONE',  ( -12.50000000000000000, 12.49999999999999600, 2.000000000000000000 ) ) ;
#115 = LINE ( 'NONE', #228, #15 ) ;
#116 = CARTESIAN_POINT ( 'NONE',  ( -12.49999999999999600, -12.50000000000000500, 2.000000000000000000 ) ) ;
#117 = ORIENTED_EDGE ( 'NONE', *, *, #57, .T. ) ;
#118 = DIRECTION ( 'NONE',  ( 1.000000000000000000, 0.0000000000000000000, 0.0000000000000000000 ) ) ;
#119 = ORIENTED_EDGE ( 'NONE', *, *, #77, .F. ) ;
#120 = APPROVAL_DATE_TIME ( #132, #111 ) ;
#121 = CLOSED_SHELL ( 'NONE', ( #10, #174, #41, #168, #110, #95 ) ) ;
#122 = VECTOR ( 'NONE', #231, 1000.000000000000000 ) ;
#123 = CC_DESIGN_PERSON_AND_ORGANIZATION_ASSIGNMENT ( #219, #33, ( #129 ) ) ;
#124 = PRODUCT_DEFINITION_FORMATION_WITH_SPECIFIED_SOURCE ( 'ANY', '', #129, .NOT_KNOWN. ) ;
#125 = PRODUCT_DEFINITION_SHAPE ( 'NONE', 'NONE',  #185 ) ;
#126 = ORIENTED_EDGE ( 'NONE', *, *, #229, .F. ) ;
#127 = VERTEX_POINT ( 'NONE', #80 ) ;
#128 = VERTEX_POINT ( 'NONE', #131 ) ;
#129 = PRODUCT ( 'Web Model 84488_48191', 'Web Model 84488_48191', '', ( #104 ) ) ;
#130 = DIRECTION ( 'NONE',  ( -1.387778780781445700E-016, 1.000000000000000000, -0.0000000000000000000 ) ) ;
#131 = CARTESIAN_POINT ( 'NONE',  ( 12.50000000000000000, 12.49999999999999600, 2.000000000000000000 ) ) ;
#132 = DATE_AND_TIME ( #190, #230 ) ;
#133 = DIRECTION ( 'NONE',  ( 1.387778780781445700E-016, -1.000000000000000000, 0.0000000000000000000 ) ) ;
#134 = APPLICATION_PROTOCOL_DEFINITION ( 'international standard', 'config_control_design', 1994, #142 ) ;
#135 = EDGE_CURVE ( 'NONE', #7, #127, #139, .T. ) ;
#136 = ORIENTED_EDGE ( 'NONE', *, *, #100, .T. ) ;
#137 = ORIENTED_EDGE ( 'NONE', *, *, #57, .F. ) ;
#138 = APPROVAL_ROLE ( '' ) ;
#139 = LINE ( 'NONE', #151, #5 ) ;
#140 = PLANE ( 'NONE',  #26 ) ;
#141 = CC_DESIGN_DATE_AND_TIME_ASSIGNMENT ( #1, #102, ( #53 ) ) ;
#142 = APPLICATION_CONTEXT ( 'configuration controlled 3d designs of mechanical parts and assemblies' ) ;
#143 = FACE_OUTER_BOUND ( 'NONE', #79, .T. ) ;
#144 = EDGE_CURVE ( 'NONE', #107, #177, #78, .T. ) ;
#145 = VECTOR ( 'NONE', #61, 1000.000000000000000 ) ;
#146 = ORIENTED_EDGE ( 'NONE', *, *, #24, .T. ) ;
#147 = AXIS2_PLACEMENT_3D ( 'NONE', #27, #49, #133 ) ;
#148 = COORDINATED_UNIVERSAL_TIME_OFFSET ( 5, 0, .BEHIND. ) ;
#149 = CARTESIAN_POINT ( 'NONE',  ( -12.49999999999999600, -12.50000000000000500, 2.000000000000000000 ) ) ;
#150 = ORIENTED_EDGE ( 'NONE', *, *, #32, .T. ) ;
#151 = CARTESIAN_POINT ( 'NONE',  ( 12.50000000000000000, 12.49999999999999600, 0.0000000000000000000 ) ) ;
#152 = DIRECTION ( 'NONE',  ( -0.0000000000000000000, -0.0000000000000000000, -1.000000000000000000 ) ) ;
#153 = AXIS2_PLACEMENT_3D ( 'NONE', #47, #81, #97 ) ;
#154 = CARTESIAN_POINT ( 'NONE',  ( -12.50000000000000000, 12.49999999999999600, 2.000000000000000000 ) ) ;
#155 = ORIENTED_EDGE ( 'NONE', *, *, #144, .T. ) ;
#156 = LINE ( 'NONE', #17, #93 ) ;
#157 = LOCAL_TIME ( 10, 57, 22.00000000000000000, #186 ) ;
#158 = PERSON_AND_ORGANIZATION_ROLE ( 'creator' ) ;
#159 = EDGE_CURVE ( 'NONE', #177, #7, #172, .T. ) ;
#160 = ORIENTED_EDGE ( 'NONE', *, *, #204, .F. ) ;
#161 = PERSON_AND_ORGANIZATION ( #19, #101 ) ;
#162 = AXIS2_PLACEMENT_3D ( 'NONE', #197, #43, #198 ) ;
#163 = LINE ( 'NONE', #211, #29 ) ;
#164 = VERTEX_POINT ( 'NONE', #13 ) ;
#165 = CALENDAR_DATE ( 2017, 19, 5 ) ;
#166 = APPROVAL_PERSON_ORGANIZATION ( #192, #191, #235 ) ;
#167 = COORDINATED_UNIVERSAL_TIME_OFFSET ( 5, 0, .BEHIND. ) ;
#168 = ADVANCED_FACE ( 'NONE', ( #74 ), #98, .F. ) ;
#169 = CARTESIAN_POINT ( 'NONE',  ( 12.50000000000000000, 12.49999999999999600, 2.000000000000000000 ) ) ;
#170 = PLANE ( 'NONE',  #147 ) ;
#171 = PLANE ( 'NONE',  #162 ) ;
#172 = LINE ( 'NONE', #44, #105 ) ;
#173 = ORIENTED_EDGE ( 'NONE', *, *, #135, .T. ) ;
#174 = ADVANCED_FACE ( 'NONE', ( #37 ), #140, .F. ) ;
#175 = CC_DESIGN_APPROVAL ( #111, ( #124 ) ) ;
#176 = DIRECTION ( 'NONE',  ( 0.0000000000000000000, -0.0000000000000000000, 1.000000000000000000 ) ) ;
#177 = VERTEX_POINT ( 'NONE', #31 ) ;
#178 = ORIENTED_EDGE ( 'NONE', *, *, #100, .F. ) ;
#179 = SECURITY_CLASSIFICATION_LEVEL ( 'unclassified' ) ;
#180 = PERSON_AND_ORGANIZATION ( #19, #101 ) ;
#181 = DATE_AND_TIME ( #50, #222 ) ;
#182 = DIRECTION ( 'NONE',  ( 0.0000000000000000000, 1.000000000000000000, 0.0000000000000000000 ) ) ;
#183 = PRODUCT_RELATED_PRODUCT_CATEGORY ( 'detail', '', ( #129 ) ) ;
#184 = COORDINATED_UNIVERSAL_TIME_OFFSET ( 5, 0, .BEHIND. ) ;
#185 = PRODUCT_DEFINITION ( 'UNKNOWN', '', #124, #216 ) ;
#186 = COORDINATED_UNIVERSAL_TIME_OFFSET ( 5, 0, .BEHIND. ) ;
#187 = LINE ( 'NONE', #113, #223 ) ;
#188 = CC_DESIGN_SECURITY_CLASSIFICATION ( #53, ( #124 ) ) ;
#189 = LOCAL_TIME ( 10, 57, 22.00000000000000000, #39 ) ;
#190 = CALENDAR_DATE ( 2017, 19, 5 ) ;
#191 = APPROVAL ( #215, 'UNSPECIFIED' ) ;
#192 = PERSON_AND_ORGANIZATION ( #19, #101 ) ;
#193 = AXIS2_PLACEMENT_3D ( 'NONE', #59, #83, #112 ) ;
#194 = DIRECTION ( 'NONE',  ( 1.000000000000000000, 1.387778780781445700E-016, -0.0000000000000000000 ) ) ;
#195 = EDGE_LOOP ( 'NONE', ( #234, #155, #146, #117 ) ) ;
#196 = DIRECTION ( 'NONE',  ( -0.0000000000000000000, -0.0000000000000000000, -1.000000000000000000 ) ) ;
#197 = CARTESIAN_POINT ( 'NONE',  ( -12.49999999999999600, -12.50000000000000500, 0.0000000000000000000 ) ) ;
#198 = DIRECTION ( 'NONE',  ( 1.000000000000000000, 0.0000000000000000000, 0.0000000000000000000 ) ) ;
#199 = CC_DESIGN_DATE_AND_TIME_ASSIGNMENT ( #84, #68, ( #185 ) ) ;
#200 = DATE_AND_TIME ( #206, #189 ) ;
#201 = EDGE_LOOP ( 'NONE', ( #173, #208, #58, #82 ) ) ;
#202 =( NAMED_UNIT ( * ) SI_UNIT ( $, .STERADIAN. ) SOLID_ANGLE_UNIT ( ) );
#203 = APPROVAL_STATUS ( 'not_yet_approved' ) ;
#204 = EDGE_CURVE ( 'NONE', #233, #107, #48, .T. ) ;
#205 = APPLICATION_PROTOCOL_DEFINITION ( 'international standard', 'config_control_design', 1994, #70 ) ;
#206 = CALENDAR_DATE ( 2017, 19, 5 ) ;
#207 = AXIS2_PLACEMENT_3D ( 'NONE', #85, #18, #118 ) ;
#208 = ORIENTED_EDGE ( 'NONE', *, *, #72, .F. ) ;
#209 = CARTESIAN_POINT ( 'NONE',  ( -12.50000000000000000, 12.49999999999999600, 0.0000000000000000000 ) ) ;
#210 = CARTESIAN_POINT ( 'NONE',  ( -12.50000000000000000, 12.49999999999999600, 2.000000000000000000 ) ) ;
#211 = CARTESIAN_POINT ( 'NONE',  ( -12.50000000000000000, 12.49999999999999600, 2.000000000000000000 ) ) ;
#212 = DIRECTION ( 'NONE',  ( -0.0000000000000000000, -0.0000000000000000000, -1.000000000000000000 ) ) ;
#213 = VECTOR ( 'NONE', #14, 1000.000000000000000 ) ;
#214 = DIRECTION ( 'NONE',  ( -1.387778780781445700E-016, 1.000000000000000000, -0.0000000000000000000 ) ) ;
#215 = APPROVAL_STATUS ( 'not_yet_approved' ) ;
#216 = DESIGN_CONTEXT ( 'detailed design', #70, 'design' ) ;
#217 = LINE ( 'NONE', #210, #213 ) ;
#218 = EDGE_LOOP ( 'NONE', ( #225, #119, #137, #22 ) ) ;
#219 = PERSON_AND_ORGANIZATION ( #19, #101 ) ;
#220 = LINE ( 'NONE', #116, #232 ) ;
#221 = CC_DESIGN_APPROVAL ( #191, ( #53 ) ) ;
#222 = LOCAL_TIME ( 10, 57, 22.00000000000000000, #148 ) ;
#223 = VECTOR ( 'NONE', #60, 1000.000000000000000 ) ;
#224 = APPROVAL ( #236, 'UNSPECIFIED' ) ;
#225 = ORIENTED_EDGE ( 'NONE', *, *, #229, .T. ) ;
#226 = CARTESIAN_POINT ( 'NONE',  ( -12.50000000000000000, 12.49999999999999600, 0.0000000000000000000 ) ) ;
#227 = DIRECTION ( 'NONE',  ( 1.387778780781445700E-016, -1.000000000000000000, 0.0000000000000000000 ) ) ;
#228 = CARTESIAN_POINT ( 'NONE',  ( 12.50000000000000000, 12.49999999999999600, 2.000000000000000000 ) ) ;
#229 = EDGE_CURVE ( 'NONE', #127, #89, #156, .T. ) ;
#230 = LOCAL_TIME ( 10, 57, 22.00000000000000000, #167 ) ;
#231 = DIRECTION ( 'NONE',  ( 1.387778780781445700E-016, -1.000000000000000000, 0.0000000000000000000 ) ) ;
#232 = VECTOR ( 'NONE', #196, 1000.000000000000000 ) ;
#233 = VERTEX_POINT ( 'NONE', #154 ) ;
#234 = ORIENTED_EDGE ( 'NONE', *, *, #204, .T. ) ;
#235 = APPROVAL_ROLE ( '' ) ;
#236 = APPROVAL_STATUS ( 'not_yet_approved' ) ;
#237 = UNCERTAINTY_MEASURE_WITH_UNIT (LENGTH_MEASURE( 1.000000000000000100E-005 ), #99, 'distance_accuracy_value', 'NONE');
ENDSEC;
END-ISO-10303-21;
