ISO-10303-21;
HEADER;
FILE_DESCRIPTION (( 'STEP AP203' ),
    '1' );
FILE_NAME ('Web Model 47023_48400.step',
    '2017-03-01T18:54:10',
    ( '' ),
    ( '' ),
    'SwSTEP 2.0',
    'SolidWorks 2016',
    '' );
FILE_SCHEMA (( 'CONFIG_CONTROL_DESIGN' ));
ENDSEC;

DATA;
#1 = ADVANCED_FACE ( 'NONE', ( #224 ), #50, .F. ) ;
#2 = EDGE_CURVE ( 'NONE', #29, #83, #43, .T. ) ;
#3 = UNCERTAINTY_MEASURE_WITH_UNIT (LENGTH_MEASURE( 1.000000000000000100E-005 ), #73, 'distance_accuracy_value', 'NONE');
#4 = CALENDAR_DATE ( 2017, 1, 3 ) ;
#5 = PERSON_AND_ORGANIZATION ( #116, #65 ) ;
#6 = LINE ( 'NONE', #215, #188 ) ;
#7 = DIRECTION ( 'NONE',  ( 0.0000000000000000000, 0.0000000000000000000, 1.000000000000000000 ) ) ;
#8 = EDGE_LOOP ( 'NONE', ( #222, #181, #220, #208 ) ) ;
#9 = PERSON_AND_ORGANIZATION ( #116, #65 ) ;
#10 = COORDINATED_UNIVERSAL_TIME_OFFSET ( 5, 0, .BEHIND. ) ;
#11 = APPROVAL_ROLE ( '' ) ;
#12 = CC_DESIGN_APPROVAL ( #97, ( #48 ) ) ;
#13 = APPLICATION_PROTOCOL_DEFINITION ( 'international standard', 'config_control_design', 1994, #218 ) ;
#14 = DIRECTION ( 'NONE',  ( -0.0000000000000000000, -0.0000000000000000000, -1.000000000000000000 ) ) ;
#15 = VECTOR ( 'NONE', #67, 1000.000000000000000 ) ;
#16 = EDGE_CURVE ( 'NONE', #141, #52, #86, .T. ) ;
#17 = APPROVAL_ROLE ( '' ) ;
#18 = CALENDAR_DATE ( 2017, 1, 3 ) ;
#19 = CC_DESIGN_APPROVAL ( #99, ( #209 ) ) ;
#20 = ADVANCED_FACE ( 'NONE', ( #221 ), #41, .F. ) ;
#21 = CARTESIAN_POINT ( 'NONE',  ( 0.0000000000000000000, 25.00000000000000000, 0.0000000000000000000 ) ) ;
#22 = APPROVAL_ROLE ( '' ) ;
#23 = AXIS2_PLACEMENT_3D ( 'NONE', #115, #162, #151 ) ;
#24 = DATE_AND_TIME ( #100, #174 ) ;
#25 = CC_DESIGN_PERSON_AND_ORGANIZATION_ASSIGNMENT ( #63, #187, ( #108 ) ) ;
#26 = CARTESIAN_POINT ( 'NONE',  ( 0.0000000000000000000, 25.00000000000000000, 0.0000000000000000000 ) ) ;
#27 = ORIENTED_EDGE ( 'NONE', *, *, #183, .T. ) ;
#28 = EDGE_CURVE ( 'NONE', #141, #150, #190, .T. ) ;
#29 = VERTEX_POINT ( 'NONE', #111 ) ;
#30 = ORIENTED_EDGE ( 'NONE', *, *, #105, .F. ) ;
#31 = VECTOR ( 'NONE', #107, 1000.000000000000000 ) ;
#32 = PLANE ( 'NONE',  #231 ) ;
#33 = DATE_AND_TIME ( #159, #228 ) ;
#34 = ORIENTED_EDGE ( 'NONE', *, *, #102, .T. ) ;
#35 = CARTESIAN_POINT ( 'NONE',  ( 0.0000000000000000000, 25.00000000000000000, 3.000000000000000000 ) ) ;
#36 = VECTOR ( 'NONE', #14, 1000.000000000000000 ) ;
#37 = CARTESIAN_POINT ( 'NONE',  ( 0.0000000000000000000, 0.0000000000000000000, 3.000000000000000000 ) ) ;
#38 = ADVANCED_FACE ( 'NONE', ( #55 ), #182, .T. ) ;
#39 = ORIENTED_EDGE ( 'NONE', *, *, #211, .T. ) ;
#40 = ORIENTED_EDGE ( 'NONE', *, *, #28, .F. ) ;
#41 = PLANE ( 'NONE',  #23 ) ;
#42 = CC_DESIGN_PERSON_AND_ORGANIZATION_ASSIGNMENT ( #113, #101, ( #48 ) ) ;
#43 = LINE ( 'NONE', #35, #136 ) ;
#44 = DIRECTION ( 'NONE',  ( 1.000000000000000000, 0.0000000000000000000, 0.0000000000000000000 ) ) ;
#45 = PLANE ( 'NONE',  #236 ) ;
#46 = APPROVAL_PERSON_ORGANIZATION ( #148, #163, #22 ) ;
#47 = CARTESIAN_POINT ( 'NONE',  ( 38.00000000000000000, 0.0000000000000000000, 0.0000000000000000000 ) ) ;
#48 = SECURITY_CLASSIFICATION ( '', '', #214 ) ;
#49 = DIRECTION ( 'NONE',  ( -0.0000000000000000000, -1.000000000000000000, -0.0000000000000000000 ) ) ;
#50 = PLANE ( 'NONE',  #180 ) ;
#51 = DIRECTION ( 'NONE',  ( 0.0000000000000000000, 0.0000000000000000000, 1.000000000000000000 ) ) ;
#52 = VERTEX_POINT ( 'NONE', #157 ) ;
#53 = VECTOR ( 'NONE', #44, 1000.000000000000000 ) ;
#54 = ADVANCED_FACE ( 'NONE', ( #227 ), #45, .F. ) ;
#55 = FACE_OUTER_BOUND ( 'NONE', #235, .T. ) ;
#56 = APPROVAL_DATE_TIME ( #58, #97 ) ;
#57 = CC_DESIGN_PERSON_AND_ORGANIZATION_ASSIGNMENT ( #5, #142, ( #108 ) ) ;
#58 = DATE_AND_TIME ( #96, #168 ) ;
#59 = ORIENTED_EDGE ( 'NONE', *, *, #102, .F. ) ;
#60 = DIRECTION ( 'NONE',  ( -1.000000000000000000, 0.0000000000000000000, -0.0000000000000000000 ) ) ;
#61 = CARTESIAN_POINT ( 'NONE',  ( 38.00000000000000000, 0.0000000000000000000, 3.000000000000000000 ) ) ;
#62 = EDGE_LOOP ( 'NONE', ( #89, #173, #198, #27 ) ) ;
#63 = PERSON_AND_ORGANIZATION ( #116, #65 ) ;
#64 = COORDINATED_UNIVERSAL_TIME_OFFSET ( 5, 0, .BEHIND. ) ;
#65 = ORGANIZATION ( 'UNSPECIFIED', 'UNSPECIFIED', '' ) ;
#66 = VERTEX_POINT ( 'NONE', #118 ) ;
#67 = DIRECTION ( 'NONE',  ( -1.000000000000000000, -0.0000000000000000000, -0.0000000000000000000 ) ) ;
#68 = DESIGN_CONTEXT ( 'detailed design', #218, 'design' ) ;
#69 = CARTESIAN_POINT ( 'NONE',  ( 38.00000000000000000, 25.00000000000000000, 0.0000000000000000000 ) ) ;
#70 = CC_DESIGN_APPROVAL ( #163, ( #108 ) ) ;
#71 = CARTESIAN_POINT ( 'NONE',  ( 0.0000000000000000000, 0.0000000000000000000, 3.000000000000000000 ) ) ;
#72 = DIRECTION ( 'NONE',  ( 0.0000000000000000000, 1.000000000000000000, 0.0000000000000000000 ) ) ;
#73 =( LENGTH_UNIT ( ) NAMED_UNIT ( * ) SI_UNIT ( .MILLI., .METRE. ) );
#74 = CARTESIAN_POINT ( 'NONE',  ( 0.0000000000000000000, 0.0000000000000000000, 0.0000000000000000000 ) ) ;
#75 = EDGE_CURVE ( 'NONE', #52, #76, #145, .T. ) ;
#76 = VERTEX_POINT ( 'NONE', #184 ) ;
#77 = CARTESIAN_POINT ( 'NONE',  ( 38.00000000000000000, 0.0000000000000000000, 3.000000000000000000 ) ) ;
#78 = VERTEX_POINT ( 'NONE', #69 ) ;
#79 = CC_DESIGN_PERSON_AND_ORGANIZATION_ASSIGNMENT ( #112, #210, ( #209 ) ) ;
#80 = DIRECTION ( 'NONE',  ( 1.000000000000000000, 0.0000000000000000000, 0.0000000000000000000 ) ) ;
#81 = DATE_AND_TIME ( #18, #191 ) ;
#82 = APPLICATION_PROTOCOL_DEFINITION ( 'international standard', 'config_control_design', 1994, #172 ) ;
#83 = VERTEX_POINT ( 'NONE', #21 ) ;
#84 = DIRECTION ( 'NONE',  ( 0.0000000000000000000, 0.0000000000000000000, -1.000000000000000000 ) ) ;
#85 = DIRECTION ( 'NONE',  ( -0.0000000000000000000, -1.000000000000000000, -0.0000000000000000000 ) ) ;
#86 = LINE ( 'NONE', #170, #95 ) ;
#87 = MECHANICAL_CONTEXT ( 'NONE', #172, 'mechanical' ) ;
#88 = PERSON_AND_ORGANIZATION_ROLE ( 'design_owner' ) ;
#89 = ORIENTED_EDGE ( 'NONE', *, *, #154, .T. ) ;
#90 = APPROVAL_STATUS ( 'not_yet_approved' ) ;
#91 = LINE ( 'NONE', #176, #53 ) ;
#92 = CARTESIAN_POINT ( 'NONE',  ( 0.0000000000000000000, 25.00000000000000000, 3.000000000000000000 ) ) ;
#93 = EDGE_CURVE ( 'NONE', #150, #66, #91, .T. ) ;
#94 = LINE ( 'NONE', #138, #232 ) ;
#95 = VECTOR ( 'NONE', #80, 1000.000000000000000 ) ;
#96 = CALENDAR_DATE ( 2017, 1, 3 ) ;
#97 = APPROVAL ( #90, 'UNSPECIFIED' ) ;
#98 = DATE_TIME_ROLE ( 'classification_date' ) ;
#99 = APPROVAL ( #133, 'UNSPECIFIED' ) ;
#100 = CALENDAR_DATE ( 2017, 1, 3 ) ;
#101 = PERSON_AND_ORGANIZATION_ROLE ( 'classification_officer' ) ;
#102 = EDGE_CURVE ( 'NONE', #66, #78, #216, .T. ) ;
#103 = DIRECTION ( 'NONE',  ( -0.0000000000000000000, -0.0000000000000000000, -1.000000000000000000 ) ) ;
#104 = VECTOR ( 'NONE', #130, 1000.000000000000000 ) ;
#105 = EDGE_CURVE ( 'NONE', #83, #150, #125, .T. ) ;
#106 = DIRECTION ( 'NONE',  ( -1.000000000000000000, 0.0000000000000000000, -0.0000000000000000000 ) ) ;
#107 = DIRECTION ( 'NONE',  ( -0.0000000000000000000, -0.0000000000000000000, -1.000000000000000000 ) ) ;
#108 = PRODUCT_DEFINITION_FORMATION_WITH_SPECIFIED_SOURCE ( 'ANY', '', #201, .NOT_KNOWN. ) ;
#109 = ADVANCED_BREP_SHAPE_REPRESENTATION ( 'Web Model 47023_48400', ( #193, #203 ), #175 ) ;
#110 = LINE ( 'NONE', #185, #15 ) ;
#111 = CARTESIAN_POINT ( 'NONE',  ( 0.0000000000000000000, 25.00000000000000000, 3.000000000000000000 ) ) ;
#112 = PERSON_AND_ORGANIZATION ( #116, #65 ) ;
#113 = PERSON_AND_ORGANIZATION ( #116, #65 ) ;
#114 = CC_DESIGN_DATE_AND_TIME_ASSIGNMENT ( #81, #98, ( #48 ) ) ;
#115 = CARTESIAN_POINT ( 'NONE',  ( 0.0000000000000000000, 0.0000000000000000000, 3.000000000000000000 ) ) ;
#116 = PERSON ( 'UNSPECIFIED', 'UNSPECIFIED', 'UNSPECIFIED', ('UNSPECIFIED'), ('UNSPECIFIED'), ('UNSPECIFIED') ) ;
#117 = PLANE ( 'NONE',  #225 ) ;
#118 = CARTESIAN_POINT ( 'NONE',  ( 38.00000000000000000, 0.0000000000000000000, 0.0000000000000000000 ) ) ;
#119 = APPROVAL_PERSON_ORGANIZATION ( #122, #97, #11 ) ;
#120 = ORIENTED_EDGE ( 'NONE', *, *, #93, .F. ) ;
#121 = ORIENTED_EDGE ( 'NONE', *, *, #167, .F. ) ;
#122 = PERSON_AND_ORGANIZATION ( #116, #65 ) ;
#123 = DIRECTION ( 'NONE',  ( 0.0000000000000000000, -0.0000000000000000000, -1.000000000000000000 ) ) ;
#124 = EDGE_LOOP ( 'NONE', ( #134, #40, #146, #219 ) ) ;
#125 = LINE ( 'NONE', #200, #160 ) ;
#126 = DIRECTION ( 'NONE',  ( -1.000000000000000000, 0.0000000000000000000, 0.0000000000000000000 ) ) ;
#127 = APPROVAL_DATE_TIME ( #24, #163 ) ;
#128 = AXIS2_PLACEMENT_3D ( 'NONE', #26, #164, #106 ) ;
#129 = COORDINATED_UNIVERSAL_TIME_OFFSET ( 5, 0, .BEHIND. ) ;
#130 = DIRECTION ( 'NONE',  ( 0.0000000000000000000, 1.000000000000000000, 0.0000000000000000000 ) ) ;
#131 = PRODUCT_RELATED_PRODUCT_CATEGORY ( 'detail', '', ( #201 ) ) ;
#132 = PERSON_AND_ORGANIZATION ( #116, #65 ) ;
#133 = APPROVAL_STATUS ( 'not_yet_approved' ) ;
#134 = ORIENTED_EDGE ( 'NONE', *, *, #105, .T. ) ;
#135 = ORIENTED_EDGE ( 'NONE', *, *, #229, .F. ) ;
#136 = VECTOR ( 'NONE', #103, 1000.000000000000000 ) ;
#137 = APPROVAL_STATUS ( 'not_yet_approved' ) ;
#138 = CARTESIAN_POINT ( 'NONE',  ( 38.00000000000000000, 25.00000000000000000, 3.000000000000000000 ) ) ;
#139 = CC_DESIGN_PERSON_AND_ORGANIZATION_ASSIGNMENT ( #9, #88, ( #201 ) ) ;
#140 = CLOSED_SHELL ( 'NONE', ( #54, #20, #1, #149, #189, #38 ) ) ;
#141 = VERTEX_POINT ( 'NONE', #71 ) ;
#142 = PERSON_AND_ORGANIZATION_ROLE ( 'creator' ) ;
#143 =( NAMED_UNIT ( * ) SI_UNIT ( $, .STERADIAN. ) SOLID_ANGLE_UNIT ( ) );
#144 = DATE_TIME_ROLE ( 'creation_date' ) ;
#145 = LINE ( 'NONE', #61, #234 ) ;
#146 = ORIENTED_EDGE ( 'NONE', *, *, #154, .F. ) ;
#147 = VECTOR ( 'NONE', #49, 1000.000000000000000 ) ;
#148 = PERSON_AND_ORGANIZATION ( #116, #65 ) ;
#149 = ADVANCED_FACE ( 'NONE', ( #237 ), #117, .F. ) ;
#150 = VERTEX_POINT ( 'NONE', #74 ) ;
#151 = DIRECTION ( 'NONE',  ( 0.0000000000000000000, -0.0000000000000000000, 1.000000000000000000 ) ) ;
#152 = ORIENTED_EDGE ( 'NONE', *, *, #75, .F. ) ;
#153 = DIRECTION ( 'NONE',  ( -1.000000000000000000, -0.0000000000000000000, -0.0000000000000000000 ) ) ;
#154 = EDGE_CURVE ( 'NONE', #29, #141, #196, .T. ) ;
#155 = SHAPE_DEFINITION_REPRESENTATION ( #205, #109 ) ;
#156 = ORIENTED_EDGE ( 'NONE', *, *, #183, .F. ) ;
#157 = CARTESIAN_POINT ( 'NONE',  ( 38.00000000000000000, 0.0000000000000000000, 3.000000000000000000 ) ) ;
#158 = CC_DESIGN_SECURITY_CLASSIFICATION ( #48, ( #108 ) ) ;
#159 = CALENDAR_DATE ( 2017, 1, 3 ) ;
#160 = VECTOR ( 'NONE', #85, 1000.000000000000000 ) ;
#161 = CARTESIAN_POINT ( 'NONE',  ( 0.0000000000000000000, 0.0000000000000000000, 0.0000000000000000000 ) ) ;
#162 = DIRECTION ( 'NONE',  ( 0.0000000000000000000, 1.000000000000000000, 0.0000000000000000000 ) ) ;
#163 = APPROVAL ( #137, 'UNSPECIFIED' ) ;
#164 = DIRECTION ( 'NONE',  ( 0.0000000000000000000, 0.0000000000000000000, -1.000000000000000000 ) ) ;
#165 = CARTESIAN_POINT ( 'NONE',  ( 0.0000000000000000000, 0.0000000000000000000, 3.000000000000000000 ) ) ;
#166 = DATE_AND_TIME ( #4, #213 ) ;
#167 = EDGE_CURVE ( 'NONE', #76, #78, #94, .T. ) ;
#168 = LOCAL_TIME ( 13, 54, 10.00000000000000000, #64 ) ;
#169 = ORIENTED_EDGE ( 'NONE', *, *, #229, .T. ) ;
#170 = CARTESIAN_POINT ( 'NONE',  ( 0.0000000000000000000, 0.0000000000000000000, 3.000000000000000000 ) ) ;
#171 = EDGE_LOOP ( 'NONE', ( #34, #121, #152, #39 ) ) ;
#172 = APPLICATION_CONTEXT ( 'configuration controlled 3d designs of mechanical parts and assemblies' ) ;
#173 = ORIENTED_EDGE ( 'NONE', *, *, #16, .T. ) ;
#174 = LOCAL_TIME ( 13, 54, 10.00000000000000000, #192 ) ;
#175 =( GEOMETRIC_REPRESENTATION_CONTEXT ( 3 ) GLOBAL_UNCERTAINTY_ASSIGNED_CONTEXT ( ( #3 ) ) GLOBAL_UNIT_ASSIGNED_CONTEXT ( ( #73, #177, #143 ) ) REPRESENTATION_CONTEXT ( 'NONE', 'WORKASPACE' ) );
#176 = CARTESIAN_POINT ( 'NONE',  ( 0.0000000000000000000, 0.0000000000000000000, 0.0000000000000000000 ) ) ;
#177 =( NAMED_UNIT ( * ) PLANE_ANGLE_UNIT ( ) SI_UNIT ( $, .RADIAN. ) );
#178 = APPROVAL_DATE_TIME ( #33, #99 ) ;
#179 = DIRECTION ( 'NONE',  ( 0.0000000000000000000, -1.000000000000000000, 0.0000000000000000000 ) ) ;
#180 = AXIS2_PLACEMENT_3D ( 'NONE', #186, #126, #51 ) ;
#181 = ORIENTED_EDGE ( 'NONE', *, *, #211, .F. ) ;
#182 = PLANE ( 'NONE',  #128 ) ;
#183 = EDGE_CURVE ( 'NONE', #76, #29, #110, .T. ) ;
#184 = CARTESIAN_POINT ( 'NONE',  ( 38.00000000000000000, 25.00000000000000000, 3.000000000000000000 ) ) ;
#185 = CARTESIAN_POINT ( 'NONE',  ( 0.0000000000000000000, 25.00000000000000000, 3.000000000000000000 ) ) ;
#186 = CARTESIAN_POINT ( 'NONE',  ( 38.00000000000000000, 0.0000000000000000000, 3.000000000000000000 ) ) ;
#187 = PERSON_AND_ORGANIZATION_ROLE ( 'design_supplier' ) ;
#188 = VECTOR ( 'NONE', #153, 1000.000000000000000 ) ;
#189 = ADVANCED_FACE ( 'NONE', ( #217 ), #32, .F. ) ;
#190 = LINE ( 'NONE', #37, #36 ) ;
#191 = LOCAL_TIME ( 13, 54, 10.00000000000000000, #233 ) ;
#192 = COORDINATED_UNIVERSAL_TIME_OFFSET ( 5, 0, .BEHIND. ) ;
#193 = MANIFOLD_SOLID_BREP ( 'Extrude1', #140 ) ;
#194 = CARTESIAN_POINT ( 'NONE',  ( 0.0000000000000000000, 25.00000000000000000, 3.000000000000000000 ) ) ;
#195 = APPROVAL_PERSON_ORGANIZATION ( #132, #99, #17 ) ;
#196 = LINE ( 'NONE', #165, #147 ) ;
#197 = LINE ( 'NONE', #77, #31 ) ;
#198 = ORIENTED_EDGE ( 'NONE', *, *, #75, .T. ) ;
#199 = CC_DESIGN_DATE_AND_TIME_ASSIGNMENT ( #166, #144, ( #209 ) ) ;
#200 = CARTESIAN_POINT ( 'NONE',  ( 0.0000000000000000000, 0.0000000000000000000, 0.0000000000000000000 ) ) ;
#201 = PRODUCT ( 'Web Model 47023_48400', 'Web Model 47023_48400', '', ( #87 ) ) ;
#202 = DIRECTION ( 'NONE',  ( 1.000000000000000000, 0.0000000000000000000, 0.0000000000000000000 ) ) ;
#203 = AXIS2_PLACEMENT_3D ( 'NONE', #161, #7, #207 ) ;
#204 = ORIENTED_EDGE ( 'NONE', *, *, #167, .T. ) ;
#205 = PRODUCT_DEFINITION_SHAPE ( 'NONE', 'NONE',  #209 ) ;
#206 = EDGE_LOOP ( 'NONE', ( #169, #212, #156, #204 ) ) ;
#207 = DIRECTION ( 'NONE',  ( 1.000000000000000000, 0.0000000000000000000, 0.0000000000000000000 ) ) ;
#208 = ORIENTED_EDGE ( 'NONE', *, *, #28, .T. ) ;
#209 = PRODUCT_DEFINITION ( 'UNKNOWN', '', #108, #68 ) ;
#210 = PERSON_AND_ORGANIZATION_ROLE ( 'creator' ) ;
#211 = EDGE_CURVE ( 'NONE', #52, #66, #197, .T. ) ;
#212 = ORIENTED_EDGE ( 'NONE', *, *, #2, .F. ) ;
#213 = LOCAL_TIME ( 13, 54, 10.00000000000000000, #129 ) ;
#214 = SECURITY_CLASSIFICATION_LEVEL ( 'unclassified' ) ;
#215 = CARTESIAN_POINT ( 'NONE',  ( 0.0000000000000000000, 25.00000000000000000, 0.0000000000000000000 ) ) ;
#216 = LINE ( 'NONE', #47, #104 ) ;
#217 = FACE_OUTER_BOUND ( 'NONE', #62, .T. ) ;
#218 = APPLICATION_CONTEXT ( 'configuration controlled 3d designs of mechanical parts and assemblies' ) ;
#219 = ORIENTED_EDGE ( 'NONE', *, *, #2, .T. ) ;
#220 = ORIENTED_EDGE ( 'NONE', *, *, #16, .F. ) ;
#221 = FACE_OUTER_BOUND ( 'NONE', #8, .T. ) ;
#222 = ORIENTED_EDGE ( 'NONE', *, *, #93, .T. ) ;
#223 = DIRECTION ( 'NONE',  ( 0.0000000000000000000, 0.0000000000000000000, -1.000000000000000000 ) ) ;
#224 = FACE_OUTER_BOUND ( 'NONE', #171, .T. ) ;
#225 = AXIS2_PLACEMENT_3D ( 'NONE', #194, #179, #123 ) ;
#226 = CARTESIAN_POINT ( 'NONE',  ( 0.0000000000000000000, 0.0000000000000000000, 3.000000000000000000 ) ) ;
#227 = FACE_OUTER_BOUND ( 'NONE', #124, .T. ) ;
#228 = LOCAL_TIME ( 13, 54, 10.00000000000000000, #10 ) ;
#229 = EDGE_CURVE ( 'NONE', #78, #83, #6, .T. ) ;
#230 = DIRECTION ( 'NONE',  ( -0.0000000000000000000, -0.0000000000000000000, -1.000000000000000000 ) ) ;
#231 = AXIS2_PLACEMENT_3D ( 'NONE', #92, #223, #60 ) ;
#232 = VECTOR ( 'NONE', #230, 1000.000000000000000 ) ;
#233 = COORDINATED_UNIVERSAL_TIME_OFFSET ( 5, 0, .BEHIND. ) ;
#234 = VECTOR ( 'NONE', #72, 1000.000000000000000 ) ;
#235 = EDGE_LOOP ( 'NONE', ( #30, #135, #59, #120 ) ) ;
#236 = AXIS2_PLACEMENT_3D ( 'NONE', #226, #202, #84 ) ;
#237 = FACE_OUTER_BOUND ( 'NONE', #206, .T. ) ;
ENDSEC;
END-ISO-10303-21;
