ISO-10303-21;
HEADER;
FILE_DESCRIPTION (( 'STEP AP203' ),
    '1' );
FILE_NAME ('ISP Wedged Parts_16810.step',
    '2021-01-08T17:55:21',
    ( '' ),
    ( '' ),
    'SwSTEP 2.0',
    'SolidWorks 2018',
    '' );
FILE_SCHEMA (( 'CONFIG_CONTROL_DESIGN' ));
ENDSEC;

DATA;
#1 = CARTESIAN_POINT ( 'NONE',  ( 12.69999999999999929, 1.555301434917138433E-15, 4.000000000000000000 ) ) ;
#2 = FACE_OUTER_BOUND ( 'NONE', #56, .T. ) ;
#3 = CARTESIAN_POINT ( 'NONE',  ( 12.69999999999999929, 1.555301434917138433E-15, 0.1108312209425420802 ) ) ;
#4 = APPLICATION_PROTOCOL_DEFINITION ( 'international standard', 'config_control_design', 1994, #91 ) ;
#5 = CARTESIAN_POINT ( 'NONE',  ( 12.69999999999999929, 1.555301434917138433E-15, 0.1108312209425420802 ) ) ;
#6 = PERSON_AND_ORGANIZATION ( #50, #134 ) ;
#7 = PERSON_AND_ORGANIZATION_ROLE ( 'creator' ) ;
#8 = DATE_TIME_ROLE ( 'classification_date' ) ;
#9 = EDGE_CURVE ( 'NONE', #113, #167, #73, .T. ) ;
#10 = AXIS2_PLACEMENT_3D ( 'NONE', #20, #82, #110 ) ;
#11 = PRODUCT_DEFINITION_SHAPE ( 'NONE', 'NONE',  #52 ) ;
#12 = DATE_AND_TIME ( #175, #29 ) ;
#13 = DIRECTION ( 'NONE',  ( 1.000000000000000000, 0.0000000000000000000, 0.0000000000000000000 ) ) ;
#14 = CYLINDRICAL_SURFACE ( 'NONE', #10, 12.69999999999999929 ) ;
#15 = DIRECTION ( 'NONE',  ( -1.000000000000000000, 0.0000000000000000000, 0.0000000000000000000 ) ) ;
#16 = PERSON_AND_ORGANIZATION ( #50, #134 ) ;
#17 = ORIENTED_EDGE ( 'NONE', *, *, #68, .T. ) ;
#18 = VERTEX_POINT ( 'NONE', #98 ) ;
#19 = APPROVAL_PERSON_ORGANIZATION ( #109, #94, #46 ) ;
#20 = CARTESIAN_POINT ( 'NONE',  ( 0.0000000000000000000, 0.0000000000000000000, 4.000000000000000000 ) ) ;
#21 = ORIENTED_EDGE ( 'NONE', *, *, #140, .F. ) ;
#22 = DIRECTION ( 'NONE',  ( 0.0000000000000000000, 0.0000000000000000000, 1.000000000000000000 ) ) ;
#23 = CARTESIAN_POINT ( 'NONE',  ( 0.0000000000000000000, 0.0000000000000000000, 4.000000000000000000 ) ) ;
#24 = DIRECTION ( 'NONE',  ( -0.0000000000000000000, -0.0000000000000000000, -1.000000000000000000 ) ) ;
#25 = CARTESIAN_POINT ( 'NONE',  ( -12.70000000000000462, -25.39999999999999858, 0.3324936628276262129 ) ) ;
#26 = EDGE_CURVE ( 'NONE', #18, #39, #79, .T. ) ;
#27 = CC_DESIGN_PERSON_AND_ORGANIZATION_ASSIGNMENT ( #148, #165, ( #78 ) ) ;
#28 = ADVANCED_BREP_SHAPE_REPRESENTATION ( 'ISP Wedged Parts_16810', ( #152, #43 ), #96 ) ;
#29 = LOCAL_TIME ( 12, 55, 21.00000000000000000, #161 ) ;
#30 = EDGE_LOOP ( 'NONE', ( #32, #145, #136, #162 ) ) ;
#31 = DIRECTION ( 'NONE',  ( -0.0000000000000000000, -0.0000000000000000000, -1.000000000000000000 ) ) ;
#32 = ORIENTED_EDGE ( 'NONE', *, *, #9, .F. ) ;
#33 = CC_DESIGN_PERSON_AND_ORGANIZATION_ASSIGNMENT ( #6, #144, ( #78 ) ) ;
#34 = DIRECTION ( 'NONE',  ( -0.0000000000000000000, -0.0000000000000000000, -1.000000000000000000 ) ) ;
#35 =( BOUNDED_CURVE ( )  B_SPLINE_CURVE ( 3, ( #84, #80, #51, #153 ),
 .UNSPECIFIED., .F., .F. ) 
 B_SPLINE_CURVE_WITH_KNOTS ( ( 4, 4 ),
 ( 4.712388980384689674, 7.853981633974482790 ),
 .UNSPECIFIED. ) 
 CURVE ( )  GEOMETRIC_REPRESENTATION_ITEM ( )  RATIONAL_B_SPLINE_CURVE ( ( 1.000000000000000000, 0.3333333333333333703, 0.3333333333333333703, 1.000000000000000000 ) ) 
 REPRESENTATION_ITEM ( '' )  );
#36 = CARTESIAN_POINT ( 'NONE',  ( -12.69999999999999929, 0.0000000000000000000, 0.1108312209425420802 ) ) ;
#37 = DATE_AND_TIME ( #62, #45 ) ;
#38 = CARTESIAN_POINT ( 'NONE',  ( 0.0000000000000000000, 0.0000000000000000000, 4.000000000000000000 ) ) ;
#39 = VERTEX_POINT ( 'NONE', #36 ) ;
#40 = FACE_OUTER_BOUND ( 'NONE', #42, .T. ) ;
#41 = SECURITY_CLASSIFICATION ( '', '', #61 ) ;
#42 = EDGE_LOOP ( 'NONE', ( #159, #158 ) ) ;
#43 = AXIS2_PLACEMENT_3D ( 'NONE', #133, #44, #57 ) ;
#44 = DIRECTION ( 'NONE',  ( 0.0000000000000000000, 0.0000000000000000000, 1.000000000000000000 ) ) ;
#45 = LOCAL_TIME ( 12, 55, 21.00000000000000000, #107 ) ;
#46 = APPROVAL_ROLE ( '' ) ;
#47 = CALENDAR_DATE ( 2021, 8, 1 ) ;
#48 = ORIENTED_EDGE ( 'NONE', *, *, #9, .T. ) ;
#49 = EDGE_CURVE ( 'NONE', #113, #18, #60, .T. ) ;
#50 = PERSON ( 'UNSPECIFIED', 'UNSPECIFIED', 'UNSPECIFIED', ('UNSPECIFIED'), ('UNSPECIFIED'), ('UNSPECIFIED') ) ;
#51 = CARTESIAN_POINT ( 'NONE',  ( -12.70000000000000462, 25.39999999999999858, -0.1108312209425421080 ) ) ;
#52 = PRODUCT_DEFINITION ( 'UNKNOWN', '', #78, #105 ) ;
#53 = ORIENTED_EDGE ( 'NONE', *, *, #49, .F. ) ;
#54 = APPROVAL_PERSON_ORGANIZATION ( #126, #55, #93 ) ;
#55 = APPROVAL ( #146, 'UNSPECIFIED' ) ;
#56 = EDGE_LOOP ( 'NONE', ( #53, #48, #17, #75 ) ) ;
#57 = DIRECTION ( 'NONE',  ( 1.000000000000000000, 0.0000000000000000000, 0.0000000000000000000 ) ) ;
#58 = UNCERTAINTY_MEASURE_WITH_UNIT (LENGTH_MEASURE( 1.000000000000000082E-05 ), #114, 'distance_accuracy_value', 'NONE');
#59 = AXIS2_PLACEMENT_3D ( 'NONE', #157, #66, #85 ) ;
#60 = CIRCLE ( 'NONE', #172, 12.69999999999999929 ) ;
#61 = SECURITY_CLASSIFICATION_LEVEL ( 'unclassified' ) ;
#62 = CALENDAR_DATE ( 2021, 8, 1 ) ;
#63 = APPROVAL ( #104, 'UNSPECIFIED' ) ;
#64 = CC_DESIGN_DATE_AND_TIME_ASSIGNMENT ( #168, #8, ( #41 ) ) ;
#65 = ADVANCED_FACE ( 'NONE', ( #2 ), #14, .T. ) ;
#66 = DIRECTION ( 'NONE',  ( 0.0000000000000000000, 0.008726535498366494448, 0.9999619230641714207 ) ) ;
#67 = CIRCLE ( 'NONE', #119, 12.69999999999999929 ) ;
#68 = EDGE_CURVE ( 'NONE', #167, #39, #35, .T. ) ;
#69 =( NAMED_UNIT ( * ) SI_UNIT ( $, .STERADIAN. ) SOLID_ANGLE_UNIT ( ) );
#70 = CARTESIAN_POINT ( 'NONE',  ( -12.69999999999999929, 0.0000000000000000000, 0.1108312209425420802 ) ) ;
#71 = CALENDAR_DATE ( 2021, 8, 1 ) ;
#72 = PERSON_AND_ORGANIZATION_ROLE ( 'classification_officer' ) ;
#73 = LINE ( 'NONE', #150, #149 ) ;
#74 = EDGE_CURVE ( 'NONE', #18, #113, #67, .T. ) ;
#75 = ORIENTED_EDGE ( 'NONE', *, *, #26, .F. ) ;
#76 = LOCAL_TIME ( 12, 55, 21.00000000000000000, #137 ) ;
#77 = CLOSED_SHELL ( 'NONE', ( #65, #139, #122, #123 ) ) ;
#78 = PRODUCT_DEFINITION_FORMATION_WITH_SPECIFIED_SOURCE ( 'ANY', '', #92, .NOT_KNOWN. ) ;
#79 = LINE ( 'NONE', #125, #108 ) ;
#80 = CARTESIAN_POINT ( 'NONE',  ( 12.70000000000000995, 25.39999999999999858, -0.1108312209425420664 ) ) ;
#81 = LOCAL_TIME ( 12, 55, 21.00000000000000000, #95 ) ;
#82 = DIRECTION ( 'NONE',  ( -0.0000000000000000000, -0.0000000000000000000, -1.000000000000000000 ) ) ;
#83 = PERSON_AND_ORGANIZATION ( #50, #134 ) ;
#84 = CARTESIAN_POINT ( 'NONE',  ( 12.69999999999999929, 1.555301434917138433E-15, 0.1108312209425420802 ) ) ;
#85 = DIRECTION ( 'NONE',  ( 0.0000000000000000000, -0.9999619230641713097, 0.008726535498366492713 ) ) ;
#86 = CYLINDRICAL_SURFACE ( 'NONE', #124, 12.69999999999999929 ) ;
#87 = APPLICATION_PROTOCOL_DEFINITION ( 'international standard', 'config_control_design', 1994, #170 ) ;
#88 = CARTESIAN_POINT ( 'NONE',  ( 0.0000000000000000000, 0.0000000000000000000, 4.000000000000000000 ) ) ;
#89 =( BOUNDED_CURVE ( )  B_SPLINE_CURVE ( 3, ( #70, #25, #112, #3 ),
 .UNSPECIFIED., .F., .F. ) 
 B_SPLINE_CURVE_WITH_KNOTS ( ( 4, 4 ),
 ( 1.570796326794896558, 4.712388980384689674 ),
 .UNSPECIFIED. ) 
 CURVE ( )  GEOMETRIC_REPRESENTATION_ITEM ( )  RATIONAL_B_SPLINE_CURVE ( ( 1.000000000000000000, 0.3333333333333333703, 0.3333333333333333703, 1.000000000000000000 ) ) 
 REPRESENTATION_ITEM ( '' )  );
#90 = APPROVAL_DATE_TIME ( #115, #63 ) ;
#91 = APPLICATION_CONTEXT ( 'configuration controlled 3d designs of mechanical parts and assemblies' ) ;
#92 = PRODUCT ( 'ISP Wedged Parts_16810', 'ISP Wedged Parts_16810', '', ( #164 ) ) ;
#93 = APPROVAL_ROLE ( '' ) ;
#94 = APPROVAL ( #135, 'UNSPECIFIED' ) ;
#95 = COORDINATED_UNIVERSAL_TIME_OFFSET ( 5, 0, .BEHIND. ) ;
#96 =( GEOMETRIC_REPRESENTATION_CONTEXT ( 3 ) GLOBAL_UNCERTAINTY_ASSIGNED_CONTEXT ( ( #58 ) ) GLOBAL_UNIT_ASSIGNED_CONTEXT ( ( #114, #160, #69 ) ) REPRESENTATION_CONTEXT ( 'NONE', 'WORKASPACE' ) );
#97 = PERSON_AND_ORGANIZATION ( #50, #134 ) ;
#98 = CARTESIAN_POINT ( 'NONE',  ( -12.69999999999999929, 0.0000000000000000000, 4.000000000000000000 ) ) ;
#99 = AXIS2_PLACEMENT_3D ( 'NONE', #23, #22, #142 ) ;
#100 = DATE_AND_TIME ( #154, #143 ) ;
#101 = CC_DESIGN_APPROVAL ( #55, ( #41 ) ) ;
#102 = CC_DESIGN_APPROVAL ( #94, ( #78 ) ) ;
#103 = DIRECTION ( 'NONE',  ( 0.0000000000000000000, 0.0000000000000000000, 1.000000000000000000 ) ) ;
#104 = APPROVAL_STATUS ( 'not_yet_approved' ) ;
#105 = DESIGN_CONTEXT ( 'detailed design', #170, 'design' ) ;
#106 = CC_DESIGN_PERSON_AND_ORGANIZATION_ASSIGNMENT ( #166, #72, ( #41 ) ) ;
#107 = COORDINATED_UNIVERSAL_TIME_OFFSET ( 5, 0, .BEHIND. ) ;
#108 = VECTOR ( 'NONE', #31, 1000.000000000000000 ) ;
#109 = PERSON_AND_ORGANIZATION ( #50, #134 ) ;
#110 = DIRECTION ( 'NONE',  ( -1.000000000000000000, 0.0000000000000000000, 0.0000000000000000000 ) ) ;
#111 = CC_DESIGN_PERSON_AND_ORGANIZATION_ASSIGNMENT ( #97, #130, ( #92 ) ) ;
#112 = CARTESIAN_POINT ( 'NONE',  ( 12.69999999999999929, -25.39999999999999858, 0.3324936628276262129 ) ) ;
#113 = VERTEX_POINT ( 'NONE', #1 ) ;
#114 =( LENGTH_UNIT ( ) NAMED_UNIT ( * ) SI_UNIT ( .MILLI., .METRE. ) );
#115 = DATE_AND_TIME ( #47, #81 ) ;
#116 = FACE_OUTER_BOUND ( 'NONE', #173, .T. ) ;
#117 = DATE_TIME_ROLE ( 'creation_date' ) ;
#118 = ORIENTED_EDGE ( 'NONE', *, *, #68, .F. ) ;
#119 = AXIS2_PLACEMENT_3D ( 'NONE', #38, #103, #141 ) ;
#120 = APPROVAL_DATE_TIME ( #12, #55 ) ;
#121 = FACE_OUTER_BOUND ( 'NONE', #30, .T. ) ;
#122 = ADVANCED_FACE ( 'NONE', ( #40 ), #156, .T. ) ;
#123 = ADVANCED_FACE ( 'NONE', ( #116 ), #127, .F. ) ;
#124 = AXIS2_PLACEMENT_3D ( 'NONE', #88, #24, #15 ) ;
#125 = CARTESIAN_POINT ( 'NONE',  ( -12.69999999999999929, 0.0000000000000000000, 4.000000000000000000 ) ) ;
#126 = PERSON_AND_ORGANIZATION ( #50, #134 ) ;
#127 = PLANE ( 'NONE',  #59 ) ;
#128 = APPROVAL_PERSON_ORGANIZATION ( #16, #63, #129 ) ;
#129 = APPROVAL_ROLE ( '' ) ;
#130 = PERSON_AND_ORGANIZATION_ROLE ( 'design_owner' ) ;
#131 = COORDINATED_UNIVERSAL_TIME_OFFSET ( 5, 0, .BEHIND. ) ;
#132 = CC_DESIGN_APPROVAL ( #63, ( #52 ) ) ;
#133 = CARTESIAN_POINT ( 'NONE',  ( 0.0000000000000000000, 0.0000000000000000000, 0.0000000000000000000 ) ) ;
#134 = ORGANIZATION ( 'UNSPECIFIED', 'UNSPECIFIED', '' ) ;
#135 = APPROVAL_STATUS ( 'not_yet_approved' ) ;
#136 = ORIENTED_EDGE ( 'NONE', *, *, #26, .T. ) ;
#137 = COORDINATED_UNIVERSAL_TIME_OFFSET ( 5, 0, .BEHIND. ) ;
#138 = SHAPE_DEFINITION_REPRESENTATION ( #11, #28 ) ;
#139 = ADVANCED_FACE ( 'NONE', ( #121 ), #86, .T. ) ;
#140 = EDGE_CURVE ( 'NONE', #39, #167, #89, .T. ) ;
#141 = DIRECTION ( 'NONE',  ( 1.000000000000000000, 0.0000000000000000000, 0.0000000000000000000 ) ) ;
#142 = DIRECTION ( 'NONE',  ( 1.000000000000000000, 0.0000000000000000000, -0.0000000000000000000 ) ) ;
#143 = LOCAL_TIME ( 12, 55, 21.00000000000000000, #131 ) ;
#144 = PERSON_AND_ORGANIZATION_ROLE ( 'creator' ) ;
#145 = ORIENTED_EDGE ( 'NONE', *, *, #74, .F. ) ;
#146 = APPROVAL_STATUS ( 'not_yet_approved' ) ;
#147 = CC_DESIGN_PERSON_AND_ORGANIZATION_ASSIGNMENT ( #83, #7, ( #52 ) ) ;
#148 = PERSON_AND_ORGANIZATION ( #50, #134 ) ;
#149 = VECTOR ( 'NONE', #34, 1000.000000000000000 ) ;
#150 = CARTESIAN_POINT ( 'NONE',  ( 12.69999999999999929, 1.555301434917138433E-15, 4.000000000000000000 ) ) ;
#151 = CARTESIAN_POINT ( 'NONE',  ( 0.0000000000000000000, 0.0000000000000000000, 4.000000000000000000 ) ) ;
#152 = MANIFOLD_SOLID_BREP ( 'Cut-Extrude1', #77 ) ;
#153 = CARTESIAN_POINT ( 'NONE',  ( -12.69999999999999929, 0.0000000000000000000, 0.1108312209425420802 ) ) ;
#154 = CALENDAR_DATE ( 2021, 8, 1 ) ;
#155 = PRODUCT_RELATED_PRODUCT_CATEGORY ( 'detail', '', ( #92 ) ) ;
#156 = PLANE ( 'NONE',  #99 ) ;
#157 = CARTESIAN_POINT ( 'NONE',  ( -12.69999999999999929, -12.69999999999999929, 0.2216624418850841882 ) ) ;
#158 = ORIENTED_EDGE ( 'NONE', *, *, #49, .T. ) ;
#159 = ORIENTED_EDGE ( 'NONE', *, *, #74, .T. ) ;
#160 =( NAMED_UNIT ( * ) PLANE_ANGLE_UNIT ( ) SI_UNIT ( $, .RADIAN. ) );
#161 = COORDINATED_UNIVERSAL_TIME_OFFSET ( 5, 0, .BEHIND. ) ;
#162 = ORIENTED_EDGE ( 'NONE', *, *, #140, .T. ) ;
#163 = CC_DESIGN_DATE_AND_TIME_ASSIGNMENT ( #37, #117, ( #52 ) ) ;
#164 = MECHANICAL_CONTEXT ( 'NONE', #91, 'mechanical' ) ;
#165 = PERSON_AND_ORGANIZATION_ROLE ( 'design_supplier' ) ;
#166 = PERSON_AND_ORGANIZATION ( #50, #134 ) ;
#167 = VERTEX_POINT ( 'NONE', #5 ) ;
#168 = DATE_AND_TIME ( #71, #76 ) ;
#169 = APPROVAL_DATE_TIME ( #100, #94 ) ;
#170 = APPLICATION_CONTEXT ( 'configuration controlled 3d designs of mechanical parts and assemblies' ) ;
#171 = CC_DESIGN_SECURITY_CLASSIFICATION ( #41, ( #78 ) ) ;
#172 = AXIS2_PLACEMENT_3D ( 'NONE', #151, #174, #13 ) ;
#173 = EDGE_LOOP ( 'NONE', ( #21, #118 ) ) ;
#174 = DIRECTION ( 'NONE',  ( 0.0000000000000000000, 0.0000000000000000000, 1.000000000000000000 ) ) ;
#175 = CALENDAR_DATE ( 2021, 8, 1 ) ;
ENDSEC;
END-ISO-10303-21;
