ISO-10303-21;
HEADER;
FILE_DESCRIPTION (( 'STEP AP214' ),
    '1' );
FILE_NAME ('CTN002732.STEP',
    '2016-10-11T02:35:49',
    ( '' ),
    ( '' ),
    'SwSTEP 2.0',
    'SolidWorks 2016',
    '' );
FILE_SCHEMA (( 'AUTOMOTIVE_DESIGN' ));
ENDSEC;

DATA;
#1 = EDGE_CURVE ( 'NONE', #92, #84, #14, .T. ) ;
#2 = PLANE ( 'NONE',  #95 ) ;
#3 = SURFACE_SIDE_STYLE ('',( #78 ) ) ;
#4 = DIRECTION ( 'NONE',  ( 0.0000000000000000000, 0.0000000000000000000, -1.000000000000000000 ) ) ;
#5 = SPHERICAL_SURFACE ( 'NONE', #7, 4.999999999999999100 ) ;
#6 = APPLICATION_PROTOCOL_DEFINITION ( 'draft international standard', 'automotive_design', 1998, #149 ) ;
#7 = AXIS2_PLACEMENT_3D ( 'NONE', #22, #33, #127 ) ;
#8 =( NAMED_UNIT ( * ) SI_UNIT ( $, .STERADIAN. ) SOLID_ANGLE_UNIT ( ) );
#9 = SURFACE_STYLE_FILL_AREA ( #69 ) ;
#10 = CARTESIAN_POINT ( 'NONE',  ( 0.0000000000000000000, -54.96627066920721200, 7.033598616438818700 ) ) ;
#11 = FILL_AREA_STYLE ('',( #71 ) ) ;
#12 =( NAMED_UNIT ( * ) PLANE_ANGLE_UNIT ( ) SI_UNIT ( $, .RADIAN. ) );
#13 =( NAMED_UNIT ( * ) SI_UNIT ( $, .STERADIAN. ) SOLID_ANGLE_UNIT ( ) );
#14 = CIRCLE ( 'NONE', #27, 5.000000000000000000 ) ;
#15 = CIRCLE ( 'NONE', #91, 5.000000000000000000 ) ;
#16 = STYLED_ITEM ( 'NONE', ( #56 ), #130 ) ;
#17 = EDGE_LOOP ( 'NONE', ( #116, #147, #77 ) ) ;
#18 =( GEOMETRIC_REPRESENTATION_CONTEXT ( 3 ) GLOBAL_UNCERTAINTY_ASSIGNED_CONTEXT ( ( #25 ) ) GLOBAL_UNIT_ASSIGNED_CONTEXT ( ( #44, #12, #103 ) ) REPRESENTATION_CONTEXT ( 'NONE', 'WORKASPACE' ) );
#19 = AXIS2_PLACEMENT_3D ( 'NONE', #119, #35, #47 ) ;
#20 = CLOSED_SHELL ( 'NONE', ( #79, #145, #28 ) ) ;
#21 = PRESENTATION_STYLE_ASSIGNMENT (( #138 ) ) ;
#22 = CARTESIAN_POINT ( 'NONE',  ( 0.0000000000000000000, -54.96627066920721200, 7.033598616438818700 ) ) ;
#23 = PRESENTATION_LAYER_ASSIGNMENT (  '', '', ( #110 ) ) ;
#24 = DIRECTION ( 'NONE',  ( 0.0000000000000000000, 0.0000000000000000000, -1.000000000000000000 ) ) ;
#25 = UNCERTAINTY_MEASURE_WITH_UNIT (LENGTH_MEASURE( 1.000000000000000100E-005 ), #44, 'distance_accuracy_value', 'NONE');
#26 = FILL_AREA_STYLE_COLOUR ( '', #81 ) ;
#27 = AXIS2_PLACEMENT_3D ( 'NONE', #10, #140, #4 ) ;
#28 = ADVANCED_FACE ( 'NONE', ( #96 ), #2, .T. ) ;
#29 = COLOUR_RGB ( '',1.000000000000000000, 0.5019607843137254800, 0.5019607843137254800 ) ;
#30 = SURFACE_SIDE_STYLE ('',( #9 ) ) ;
#31 = PRESENTATION_STYLE_ASSIGNMENT (( #39 ) ) ;
#32 = SURFACE_STYLE_USAGE ( .BOTH. , #115 ) ;
#33 = DIRECTION ( 'NONE',  ( 1.000000000000000000, 0.0000000000000000000, 0.0000000000000000000 ) ) ;
#34 =( NAMED_UNIT ( * ) SI_UNIT ( $, .STERADIAN. ) SOLID_ANGLE_UNIT ( ) );
#35 = DIRECTION ( 'NONE',  ( -1.000000000000000000, 0.0000000000000000000, 0.0000000000000000000 ) ) ;
#36 = PRODUCT_DEFINITION_FORMATION_WITH_SPECIFIED_SOURCE ( 'ANY', '', #88, .NOT_KNOWN. ) ;
#37 = UNCERTAINTY_MEASURE_WITH_UNIT (LENGTH_MEASURE( 1.000000000000000100E-005 ), #121, 'distance_accuracy_value', 'NONE');
#38 = AXIS2_PLACEMENT_3D ( 'NONE', #99, #135, #123 ) ;
#39 = SURFACE_STYLE_USAGE ( .BOTH. , #146 ) ;
#40 =( LENGTH_UNIT ( ) NAMED_UNIT ( * ) SI_UNIT ( .MILLI., .METRE. ) );
#41 = EDGE_CURVE ( 'NONE', #142, #92, #70, .T. ) ;
#42 = FILL_AREA_STYLE_COLOUR ( '', #154 ) ;
#43 = APPLICATION_CONTEXT ( 'automotive_design' ) ;
#44 =( LENGTH_UNIT ( ) NAMED_UNIT ( * ) SI_UNIT ( .MILLI., .METRE. ) );
#45 = CARTESIAN_POINT ( 'NONE',  ( 6.123233995736766300E-016, -54.96627066920721200, 12.03359861643882000 ) ) ;
#46 = EDGE_LOOP ( 'NONE', ( #114, #161, #87 ) ) ;
#47 = DIRECTION ( 'NONE',  ( 0.0000000000000000000, 0.0000000000000000000, 1.000000000000000000 ) ) ;
#48 = FACE_OUTER_BOUND ( 'NONE', #46, .T. ) ;
#49 =( GEOMETRIC_REPRESENTATION_CONTEXT ( 3 ) GLOBAL_UNCERTAINTY_ASSIGNED_CONTEXT ( ( #37 ) ) GLOBAL_UNIT_ASSIGNED_CONTEXT ( ( #121, #51, #8 ) ) REPRESENTATION_CONTEXT ( 'NONE', 'WORKASPACE' ) );
#50 = PRODUCT_RELATED_PRODUCT_CATEGORY ( 'part', '', ( #88 ) ) ;
#51 =( NAMED_UNIT ( * ) PLANE_ANGLE_UNIT ( ) SI_UNIT ( $, .RADIAN. ) );
#52 = PRESENTATION_LAYER_ASSIGNMENT (  '', '', ( #65 ) ) ;
#53 = PRODUCT_DEFINITION_CONTEXT ( 'detailed design', #43, 'design' ) ;
#54 =( LENGTH_UNIT ( ) NAMED_UNIT ( * ) SI_UNIT ( .MILLI., .METRE. ) );
#55 = DIRECTION ( 'NONE',  ( -0.0000000000000000000, -1.000000000000000000, -0.0000000000000000000 ) ) ;
#56 = PRESENTATION_STYLE_ASSIGNMENT (( #82 ) ) ;
#57 = DIRECTION ( 'NONE',  ( 1.000000000000000000, 0.0000000000000000000, 0.0000000000000000000 ) ) ;
#58 =( NAMED_UNIT ( * ) PLANE_ANGLE_UNIT ( ) SI_UNIT ( $, .RADIAN. ) );
#59 = AXIS2_PLACEMENT_3D ( 'NONE', #86, #57, #74 ) ;
#60 = SHAPE_DEFINITION_REPRESENTATION ( #131, #61 ) ;
#61 = ADVANCED_BREP_SHAPE_REPRESENTATION ( 'CTN002732', ( #130, #122 ), #157 ) ;
#62 = ORIENTED_EDGE ( 'NONE', *, *, #1, .T. ) ;
#63 = PRESENTATION_LAYER_ASSIGNMENT (  '', '', ( #16 ) ) ;
#64 = PRODUCT_CONTEXT ( 'NONE', #149, 'mechanical' ) ;
#65 = STYLED_ITEM ( 'NONE', ( #31 ), #61 ) ;
#66 = SURFACE_STYLE_FILL_AREA ( #133 ) ;
#67 =( NAMED_UNIT ( * ) SI_UNIT ( $, .STERADIAN. ) SOLID_ANGLE_UNIT ( ) );
#68 = MECHANICAL_DESIGN_GEOMETRIC_PRESENTATION_REPRESENTATION (  '', ( #65 ), #129 ) ;
#69 = FILL_AREA_STYLE ('',( #109 ) ) ;
#70 = CIRCLE ( 'NONE', #38, 4.999999999999999100 ) ;
#71 = FILL_AREA_STYLE_COLOUR ( '', #90 ) ;
#72 = APPLICATION_PROTOCOL_DEFINITION ( 'draft international standard', 'automotive_design', 1998, #43 ) ;
#73 = STYLED_ITEM ( 'NONE', ( #125 ), #28 ) ;
#74 = DIRECTION ( 'NONE',  ( 0.0000000000000000000, 0.0000000000000000000, -1.000000000000000000 ) ) ;
#75 = SURFACE_STYLE_FILL_AREA ( #97 ) ;
#76 = MECHANICAL_DESIGN_GEOMETRIC_PRESENTATION_REPRESENTATION (  '', ( #16 ), #94 ) ;
#77 = ORIENTED_EDGE ( 'NONE', *, *, #89, .F. ) ;
#78 = SURFACE_STYLE_FILL_AREA ( #148 ) ;
#79 = ADVANCED_FACE ( 'NONE', ( #132 ), #5, .T. ) ;
#80 = DIRECTION ( 'NONE',  ( 0.0000000000000000000, 0.0000000000000000000, 1.000000000000000000 ) ) ;
#81 = COLOUR_RGB ( '',1.000000000000000000, 0.5019607843137254800, 0.5019607843137254800 ) ;
#82 = SURFACE_STYLE_USAGE ( .BOTH. , #3 ) ;
#83 = CIRCLE ( 'NONE', #19, 4.999999999999999100 ) ;
#84 = VERTEX_POINT ( 'NONE', #112 ) ;
#85 = SURFACE_STYLE_FILL_AREA ( #11 ) ;
#86 = CARTESIAN_POINT ( 'NONE',  ( 0.0000000000000000000, -54.96627066920721200, 7.033598616438818700 ) ) ;
#87 = ORIENTED_EDGE ( 'NONE', *, *, #1, .F. ) ;
#88 = PRODUCT ( 'CTN002732', 'CTN002732', '', ( #64 ) ) ;
#89 = EDGE_CURVE ( 'NONE', #84, #92, #15, .T. ) ;
#90 = COLOUR_RGB ( '',1.000000000000000000, 1.000000000000000000, 1.000000000000000000 ) ;
#91 = AXIS2_PLACEMENT_3D ( 'NONE', #139, #55, #134 ) ;
#92 = VERTEX_POINT ( 'NONE', #45 ) ;
#93 = PRESENTATION_STYLE_ASSIGNMENT (( #32 ) ) ;
#94 =( GEOMETRIC_REPRESENTATION_CONTEXT ( 3 ) GLOBAL_UNCERTAINTY_ASSIGNED_CONTEXT ( ( #105 ) ) GLOBAL_UNIT_ASSIGNED_CONTEXT ( ( #54, #124, #34 ) ) REPRESENTATION_CONTEXT ( 'NONE', 'WORKASPACE' ) );
#95 = AXIS2_PLACEMENT_3D ( 'NONE', #137, #152, #24 ) ;
#96 = FACE_OUTER_BOUND ( 'NONE', #153, .T. ) ;
#97 = FILL_AREA_STYLE ('',( #42 ) ) ;
#98 = DIRECTION ( 'NONE',  ( 1.000000000000000000, 0.0000000000000000000, 0.0000000000000000000 ) ) ;
#99 = CARTESIAN_POINT ( 'NONE',  ( 0.0000000000000000000, -54.96627066920721200, 7.033598616438818700 ) ) ;
#100 = SPHERICAL_SURFACE ( 'NONE', #59, 4.999999999999999100 ) ;
#101 = UNCERTAINTY_MEASURE_WITH_UNIT (LENGTH_MEASURE( 1.000000000000000100E-005 ), #40, 'distance_accuracy_value', 'NONE');
#102 = PRESENTATION_LAYER_ASSIGNMENT (  '', '', ( #73 ) ) ;
#103 =( NAMED_UNIT ( * ) SI_UNIT ( $, .STERADIAN. ) SOLID_ANGLE_UNIT ( ) );
#104 =( LENGTH_UNIT ( ) NAMED_UNIT ( * ) SI_UNIT ( .MILLI., .METRE. ) );
#105 = UNCERTAINTY_MEASURE_WITH_UNIT (LENGTH_MEASURE( 1.000000000000000100E-005 ), #54, 'distance_accuracy_value', 'NONE');
#106 = CARTESIAN_POINT ( 'NONE',  ( 0.0000000000000000000, 0.0000000000000000000, 0.0000000000000000000 ) ) ;
#107 = STYLED_ITEM ( 'NONE', ( #93 ), #145 ) ;
#108 = MECHANICAL_DESIGN_GEOMETRIC_PRESENTATION_REPRESENTATION (  '', ( #107 ), #49 ) ;
#109 = FILL_AREA_STYLE_COLOUR ( '', #120 ) ;
#110 = STYLED_ITEM ( 'NONE', ( #21 ), #79 ) ;
#111 = MECHANICAL_DESIGN_GEOMETRIC_PRESENTATION_REPRESENTATION (  '', ( #73 ), #158 ) ;
#112 = CARTESIAN_POINT ( 'NONE',  ( 0.0000000000000000000, -54.96627066920721200, 2.033598616438819100 ) ) ;
#113 = PRODUCT_DEFINITION ( 'UNKNOWN', '', #36, #53 ) ;
#114 = ORIENTED_EDGE ( 'NONE', *, *, #41, .F. ) ;
#115 = SURFACE_SIDE_STYLE ('',( #85 ) ) ;
#116 = ORIENTED_EDGE ( 'NONE', *, *, #155, .F. ) ;
#117 = FILL_AREA_STYLE_COLOUR ( '', #29 ) ;
#118 = SURFACE_STYLE_USAGE ( .BOTH. , #30 ) ;
#119 = CARTESIAN_POINT ( 'NONE',  ( 0.0000000000000000000, -54.96627066920721200, 7.033598616438818700 ) ) ;
#120 = COLOUR_RGB ( '',1.000000000000000000, 1.000000000000000000, 1.000000000000000000 ) ;
#121 =( LENGTH_UNIT ( ) NAMED_UNIT ( * ) SI_UNIT ( .MILLI., .METRE. ) );
#122 = AXIS2_PLACEMENT_3D ( 'NONE', #106, #80, #98 ) ;
#123 = DIRECTION ( 'NONE',  ( -1.224646799147353200E-016, 0.0000000000000000000, -1.000000000000000000 ) ) ;
#124 =( NAMED_UNIT ( * ) PLANE_ANGLE_UNIT ( ) SI_UNIT ( $, .RADIAN. ) );
#125 = PRESENTATION_STYLE_ASSIGNMENT (( #118 ) ) ;
#126 = SURFACE_SIDE_STYLE ('',( #75 ) ) ;
#127 = DIRECTION ( 'NONE',  ( 0.0000000000000000000, 0.0000000000000000000, -1.000000000000000000 ) ) ;
#128 = CARTESIAN_POINT ( 'NONE',  ( 0.0000000000000000000, -49.96627066920721900, 7.033598616438818700 ) ) ;
#129 =( GEOMETRIC_REPRESENTATION_CONTEXT ( 3 ) GLOBAL_UNCERTAINTY_ASSIGNED_CONTEXT ( ( #101 ) ) GLOBAL_UNIT_ASSIGNED_CONTEXT ( ( #40, #151, #13 ) ) REPRESENTATION_CONTEXT ( 'NONE', 'WORKASPACE' ) );
#130 = MANIFOLD_SOLID_BREP ( 'Revolve1', #20 ) ;
#131 = PRODUCT_DEFINITION_SHAPE ( 'NONE', 'NONE',  #113 ) ;
#132 = FACE_OUTER_BOUND ( 'NONE', #17, .T. ) ;
#133 = FILL_AREA_STYLE ('',( #26 ) ) ;
#134 = DIRECTION ( 'NONE',  ( 0.0000000000000000000, 0.0000000000000000000, -1.000000000000000000 ) ) ;
#135 = DIRECTION ( 'NONE',  ( 1.000000000000000000, 0.0000000000000000000, -1.224646799147353200E-016 ) ) ;
#136 =( NAMED_UNIT ( * ) PLANE_ANGLE_UNIT ( ) SI_UNIT ( $, .RADIAN. ) );
#137 = CARTESIAN_POINT ( 'NONE',  ( 0.0000000000000000000, -54.96627066920721200, 7.033598616438818700 ) ) ;
#138 = SURFACE_STYLE_USAGE ( .BOTH. , #126 ) ;
#139 = CARTESIAN_POINT ( 'NONE',  ( 0.0000000000000000000, -54.96627066920721200, 7.033598616438818700 ) ) ;
#140 = DIRECTION ( 'NONE',  ( -0.0000000000000000000, -1.000000000000000000, -0.0000000000000000000 ) ) ;
#141 =( LENGTH_UNIT ( ) NAMED_UNIT ( * ) SI_UNIT ( .MILLI., .METRE. ) );
#142 = VERTEX_POINT ( 'NONE', #128 ) ;
#143 = UNCERTAINTY_MEASURE_WITH_UNIT (LENGTH_MEASURE( 1.000000000000000100E-005 ), #104, 'distance_accuracy_value', 'NONE');
#144 = UNCERTAINTY_MEASURE_WITH_UNIT (LENGTH_MEASURE( 1.000000000000000100E-005 ), #141, 'distance_accuracy_value', 'NONE');
#145 = ADVANCED_FACE ( 'NONE', ( #48 ), #100, .T. ) ;
#146 = SURFACE_SIDE_STYLE ('',( #66 ) ) ;
#147 = ORIENTED_EDGE ( 'NONE', *, *, #41, .T. ) ;
#148 = FILL_AREA_STYLE ('',( #117 ) ) ;
#149 = APPLICATION_CONTEXT ( 'automotive_design' ) ;
#150 = ORIENTED_EDGE ( 'NONE', *, *, #89, .T. ) ;
#151 =( NAMED_UNIT ( * ) PLANE_ANGLE_UNIT ( ) SI_UNIT ( $, .RADIAN. ) );
#152 = DIRECTION ( 'NONE',  ( 0.0000000000000000000, -1.000000000000000000, -0.0000000000000000000 ) ) ;
#153 = EDGE_LOOP ( 'NONE', ( #150, #62 ) ) ;
#154 = COLOUR_RGB ( '',1.000000000000000000, 1.000000000000000000, 1.000000000000000000 ) ;
#155 = EDGE_CURVE ( 'NONE', #142, #84, #83, .T. ) ;
#156 =( NAMED_UNIT ( * ) SI_UNIT ( $, .STERADIAN. ) SOLID_ANGLE_UNIT ( ) );
#157 =( GEOMETRIC_REPRESENTATION_CONTEXT ( 3 ) GLOBAL_UNCERTAINTY_ASSIGNED_CONTEXT ( ( #144 ) ) GLOBAL_UNIT_ASSIGNED_CONTEXT ( ( #141, #58, #156 ) ) REPRESENTATION_CONTEXT ( 'NONE', 'WORKASPACE' ) );
#158 =( GEOMETRIC_REPRESENTATION_CONTEXT ( 3 ) GLOBAL_UNCERTAINTY_ASSIGNED_CONTEXT ( ( #143 ) ) GLOBAL_UNIT_ASSIGNED_CONTEXT ( ( #104, #136, #67 ) ) REPRESENTATION_CONTEXT ( 'NONE', 'WORKASPACE' ) );
#159 = PRESENTATION_LAYER_ASSIGNMENT (  '', '', ( #107 ) ) ;
#160 = MECHANICAL_DESIGN_GEOMETRIC_PRESENTATION_REPRESENTATION (  '', ( #110 ), #18 ) ;
#161 = ORIENTED_EDGE ( 'NONE', *, *, #155, .T. ) ;
ENDSEC;
END-ISO-10303-21;
