ISO-10303-21;
HEADER;
FILE_DESCRIPTION (( 'STEP AP203' ),
    '1' );
FILE_NAME ('Web Model 46664_46666.step',
    '2017-04-10T15:40:05',
    ( '' ),
    ( '' ),
    'SwSTEP 2.0',
    'SolidWorks 2016',
    '' );
FILE_SCHEMA (( 'CONFIG_CONTROL_DESIGN' ));
ENDSEC;

DATA;
#1 = CC_DESIGN_PERSON_AND_ORGANIZATION_ASSIGNMENT ( #29, #34, ( #146 ) ) ;
#2 = APPROVAL_ROLE ( '' ) ;
#3 = DIRECTION ( 'NONE',  ( 0.0000000000000000000, 0.0000000000000000000, 1.000000000000000000 ) ) ;
#4 = COORDINATED_UNIVERSAL_TIME_OFFSET ( 5, 0, .BEHIND. ) ;
#5 = APPROVAL_STATUS ( 'not_yet_approved' ) ;
#6 = CARTESIAN_POINT ( 'NONE',  ( 6.250000000000000000, 0.0000000000000000000, 0.5000000000000000000 ) ) ;
#7 = ADVANCED_FACE ( 'NONE', ( #137 ), #110, .F. ) ;
#8 = CC_DESIGN_PERSON_AND_ORGANIZATION_ASSIGNMENT ( #82, #90, ( #146 ) ) ;
#9 = CALENDAR_DATE ( 2017, 10, 4 ) ;
#10 = SECURITY_CLASSIFICATION_LEVEL ( 'unclassified' ) ;
#11 = CIRCLE ( 'NONE', #161, 6.250000000000000000 ) ;
#12 = DATE_TIME_ROLE ( 'creation_date' ) ;
#13 = PERSON_AND_ORGANIZATION ( #170, #21 ) ;
#14 = CARTESIAN_POINT ( 'NONE',  ( 0.0000000000000000000, 0.0000000000000000000, 0.5000000000000000000 ) ) ;
#15 = FACE_OUTER_BOUND ( 'NONE', #112, .T. ) ;
#16 = MANIFOLD_SOLID_BREP ( 'Revolve1', #73 ) ;
#17 = SECURITY_CLASSIFICATION ( '', '', #10 ) ;
#18 = PERSON_AND_ORGANIZATION_ROLE ( 'creator' ) ;
#19 = AXIS2_PLACEMENT_3D ( 'NONE', #50, #3, #145 ) ;
#20 = CARTESIAN_POINT ( 'NONE',  ( -6.250000000000000000, 7.654042494670957600E-016, 0.0000000000000000000 ) ) ;
#21 = ORGANIZATION ( 'UNSPECIFIED', 'UNSPECIFIED', '' ) ;
#22 = PERSON_AND_ORGANIZATION ( #170, #21 ) ;
#23 = DATE_AND_TIME ( #42, #156 ) ;
#24 = CARTESIAN_POINT ( 'NONE',  ( 0.0000000000000000000, 0.0000000000000000000, -0.5000000000000000000 ) ) ;
#25 = CC_DESIGN_PERSON_AND_ORGANIZATION_ASSIGNMENT ( #33, #163, ( #17 ) ) ;
#26 = EDGE_CURVE ( 'NONE', #134, #140, #173, .T. ) ;
#27 = DATE_TIME_ROLE ( 'classification_date' ) ;
#28 = ADVANCED_BREP_SHAPE_REPRESENTATION ( 'Web Model 46664_46666', ( #16, #19 ), #68 ) ;
#29 = PERSON_AND_ORGANIZATION ( #170, #21 ) ;
#30 = PERSON_AND_ORGANIZATION ( #170, #21 ) ;
#31 = APPROVAL_DATE_TIME ( #23, #48 ) ;
#32 = LOCAL_TIME ( 11, 40, 5.000000000000000000, #141 ) ;
#33 = PERSON_AND_ORGANIZATION ( #170, #21 ) ;
#34 = PERSON_AND_ORGANIZATION_ROLE ( 'creator' ) ;
#35 = CC_DESIGN_DATE_AND_TIME_ASSIGNMENT ( #129, #27, ( #17 ) ) ;
#36 = DIRECTION ( 'NONE',  ( -1.000000000000000000, 0.0000000000000000000, -0.0000000000000000000 ) ) ;
#37 = PRODUCT_DEFINITION_SHAPE ( 'NONE', 'NONE',  #151 ) ;
#38 = DIRECTION ( 'NONE',  ( -0.0000000000000000000, -0.0000000000000000000, 1.000000000000000000 ) ) ;
#39 = DIRECTION ( 'NONE',  ( -0.0000000000000000000, -0.0000000000000000000, 1.000000000000000000 ) ) ;
#40 = FACE_OUTER_BOUND ( 'NONE', #121, .T. ) ;
#41 = ORIENTED_EDGE ( 'NONE', *, *, #54, .F. ) ;
#42 = CALENDAR_DATE ( 2017, 10, 4 ) ;
#43 = CARTESIAN_POINT ( 'NONE',  ( 6.250000000000000000, 0.0000000000000000000, -0.5000000000000000000 ) ) ;
#44 =( LENGTH_UNIT ( ) NAMED_UNIT ( * ) SI_UNIT ( .MILLI., .METRE. ) );
#45 = ORIENTED_EDGE ( 'NONE', *, *, #84, .F. ) ;
#46 = APPROVAL ( #155, 'UNSPECIFIED' ) ;
#47 = APPLICATION_CONTEXT ( 'configuration controlled 3d designs of mechanical parts and assemblies' ) ;
#48 = APPROVAL ( #5, 'UNSPECIFIED' ) ;
#49 = PRODUCT ( 'Web Model 46664_46666', 'Web Model 46664_46666', '', ( #89 ) ) ;
#50 = CARTESIAN_POINT ( 'NONE',  ( 0.0000000000000000000, 0.0000000000000000000, 0.0000000000000000000 ) ) ;
#51 = DIRECTION ( 'NONE',  ( 1.000000000000000000, 0.0000000000000000000, 0.0000000000000000000 ) ) ;
#52 = DIRECTION ( 'NONE',  ( -0.0000000000000000000, -0.0000000000000000000, 1.000000000000000000 ) ) ;
#53 = CC_DESIGN_APPROVAL ( #46, ( #17 ) ) ;
#54 = EDGE_CURVE ( 'NONE', #96, #114, #11, .T. ) ;
#55 =( NAMED_UNIT ( * ) PLANE_ANGLE_UNIT ( ) SI_UNIT ( $, .RADIAN. ) );
#56 = DIRECTION ( 'NONE',  ( -0.0000000000000000000, -0.0000000000000000000, 1.000000000000000000 ) ) ;
#57 = DATE_AND_TIME ( #9, #61 ) ;
#58 = ADVANCED_FACE ( 'NONE', ( #15 ), #144, .T. ) ;
#59 = APPROVAL_ROLE ( '' ) ;
#60 = ORIENTED_EDGE ( 'NONE', *, *, #54, .T. ) ;
#61 = LOCAL_TIME ( 11, 40, 5.000000000000000000, #162 ) ;
#62 = DIRECTION ( 'NONE',  ( 1.000000000000000000, 0.0000000000000000000, 0.0000000000000000000 ) ) ;
#63 = AXIS2_PLACEMENT_3D ( 'NONE', #83, #98, #102 ) ;
#64 = CALENDAR_DATE ( 2017, 10, 4 ) ;
#65 = PERSON_AND_ORGANIZATION_ROLE ( 'design_owner' ) ;
#66 = CC_DESIGN_SECURITY_CLASSIFICATION ( #17, ( #146 ) ) ;
#67 = LINE ( 'NONE', #20, #85 ) ;
#68 =( GEOMETRIC_REPRESENTATION_CONTEXT ( 3 ) GLOBAL_UNCERTAINTY_ASSIGNED_CONTEXT ( ( #172 ) ) GLOBAL_UNIT_ASSIGNED_CONTEXT ( ( #44, #55, #119 ) ) REPRESENTATION_CONTEXT ( 'NONE', 'WORKASPACE' ) );
#69 = LOCAL_TIME ( 11, 40, 5.000000000000000000, #80 ) ;
#70 = DIRECTION ( 'NONE',  ( 1.000000000000000000, 0.0000000000000000000, 0.0000000000000000000 ) ) ;
#71 = AXIS2_PLACEMENT_3D ( 'NONE', #24, #39, #62 ) ;
#72 = CARTESIAN_POINT ( 'NONE',  ( 0.0000000000000000000, 0.0000000000000000000, 0.5000000000000000000 ) ) ;
#73 = CLOSED_SHELL ( 'NONE', ( #58, #7, #164, #116 ) ) ;
#74 = PRODUCT_RELATED_PRODUCT_CATEGORY ( 'detail', '', ( #49 ) ) ;
#75 = AXIS2_PLACEMENT_3D ( 'NONE', #167, #56, #51 ) ;
#76 = ORIENTED_EDGE ( 'NONE', *, *, #165, .T. ) ;
#77 = CC_DESIGN_PERSON_AND_ORGANIZATION_ASSIGNMENT ( #13, #65, ( #49 ) ) ;
#78 = VECTOR ( 'NONE', #107, 1000.000000000000000 ) ;
#79 = DIRECTION ( 'NONE',  ( 1.000000000000000000, 0.0000000000000000000, 0.0000000000000000000 ) ) ;
#80 = COORDINATED_UNIVERSAL_TIME_OFFSET ( 5, 0, .BEHIND. ) ;
#81 = EDGE_CURVE ( 'NONE', #140, #134, #159, .T. ) ;
#82 = PERSON_AND_ORGANIZATION ( #170, #21 ) ;
#83 = CARTESIAN_POINT ( 'NONE',  ( 0.0000000000000000000, 0.0000000000000000000, 0.0000000000000000000 ) ) ;
#84 = EDGE_CURVE ( 'NONE', #114, #134, #128, .T. ) ;
#85 = VECTOR ( 'NONE', #147, 1000.000000000000000 ) ;
#86 = EDGE_LOOP ( 'NONE', ( #97, #113 ) ) ;
#87 = CARTESIAN_POINT ( 'NONE',  ( 6.250000000000000000, 0.0000000000000000000, 0.0000000000000000000 ) ) ;
#88 = AXIS2_PLACEMENT_3D ( 'NONE', #148, #149, #79 ) ;
#89 = MECHANICAL_CONTEXT ( 'NONE', #47, 'mechanical' ) ;
#90 = PERSON_AND_ORGANIZATION_ROLE ( 'design_supplier' ) ;
#91 = DATE_AND_TIME ( #64, #69 ) ;
#92 = DESIGN_CONTEXT ( 'detailed design', #117, 'design' ) ;
#93 = CIRCLE ( 'NONE', #71, 6.250000000000000000 ) ;
#94 = DATE_AND_TIME ( #169, #32 ) ;
#95 = APPROVAL_PERSON_ORGANIZATION ( #131, #153, #126 ) ;
#96 = VERTEX_POINT ( 'NONE', #122 ) ;
#97 = ORIENTED_EDGE ( 'NONE', *, *, #26, .T. ) ;
#98 = DIRECTION ( 'NONE',  ( -0.0000000000000000000, -0.0000000000000000000, 1.000000000000000000 ) ) ;
#99 = APPROVAL_PERSON_ORGANIZATION ( #22, #48, #59 ) ;
#100 = PLANE ( 'NONE',  #88 ) ;
#101 = SHAPE_DEFINITION_REPRESENTATION ( #37, #28 ) ;
#102 = DIRECTION ( 'NONE',  ( 1.000000000000000000, 0.0000000000000000000, 0.0000000000000000000 ) ) ;
#103 = ORIENTED_EDGE ( 'NONE', *, *, #165, .F. ) ;
#104 = ORIENTED_EDGE ( 'NONE', *, *, #84, .T. ) ;
#105 = ORIENTED_EDGE ( 'NONE', *, *, #174, .F. ) ;
#106 = CARTESIAN_POINT ( 'NONE',  ( 0.0000000000000000000, 0.0000000000000000000, -0.5000000000000000000 ) ) ;
#107 = DIRECTION ( 'NONE',  ( -0.0000000000000000000, -0.0000000000000000000, 1.000000000000000000 ) ) ;
#108 = FACE_OUTER_BOUND ( 'NONE', #109, .T. ) ;
#109 = EDGE_LOOP ( 'NONE', ( #103, #60, #104, #166 ) ) ;
#110 = PLANE ( 'NONE',  #157 ) ;
#111 = APPROVAL_DATE_TIME ( #57, #46 ) ;
#112 = EDGE_LOOP ( 'NONE', ( #125, #76, #171, #45 ) ) ;
#113 = ORIENTED_EDGE ( 'NONE', *, *, #81, .T. ) ;
#114 = VERTEX_POINT ( 'NONE', #43 ) ;
#115 = DIRECTION ( 'NONE',  ( 0.0000000000000000000, 0.0000000000000000000, -1.000000000000000000 ) ) ;
#116 = ADVANCED_FACE ( 'NONE', ( #40 ), #100, .F. ) ;
#117 = APPLICATION_CONTEXT ( 'configuration controlled 3d designs of mechanical parts and assemblies' ) ;
#118 = LOCAL_TIME ( 11, 40, 5.000000000000000000, #4 ) ;
#119 =( NAMED_UNIT ( * ) SI_UNIT ( $, .STERADIAN. ) SOLID_ANGLE_UNIT ( ) );
#120 = APPLICATION_PROTOCOL_DEFINITION ( 'international standard', 'config_control_design', 1994, #47 ) ;
#121 = EDGE_LOOP ( 'NONE', ( #105, #41 ) ) ;
#122 = CARTESIAN_POINT ( 'NONE',  ( -6.250000000000000000, 7.654042494670957600E-016, -0.5000000000000000000 ) ) ;
#123 = CC_DESIGN_APPROVAL ( #48, ( #151 ) ) ;
#124 = APPROVAL_PERSON_ORGANIZATION ( #175, #46, #2 ) ;
#125 = ORIENTED_EDGE ( 'NONE', *, *, #174, .T. ) ;
#126 = APPROVAL_ROLE ( '' ) ;
#127 = DIRECTION ( 'NONE',  ( -0.0000000000000000000, -0.0000000000000000000, 1.000000000000000000 ) ) ;
#128 = LINE ( 'NONE', #87, #78 ) ;
#129 = DATE_AND_TIME ( #143, #118 ) ;
#130 = DIRECTION ( 'NONE',  ( 1.000000000000000000, 0.0000000000000000000, 0.0000000000000000000 ) ) ;
#131 = PERSON_AND_ORGANIZATION ( #170, #21 ) ;
#132 = AXIS2_PLACEMENT_3D ( 'NONE', #14, #127, #130 ) ;
#133 = APPROVAL_STATUS ( 'not_yet_approved' ) ;
#134 = VERTEX_POINT ( 'NONE', #6 ) ;
#135 = APPROVAL_DATE_TIME ( #94, #153 ) ;
#136 = CC_DESIGN_PERSON_AND_ORGANIZATION_ASSIGNMENT ( #30, #18, ( #151 ) ) ;
#137 = FACE_OUTER_BOUND ( 'NONE', #86, .T. ) ;
#138 = COORDINATED_UNIVERSAL_TIME_OFFSET ( 5, 0, .BEHIND. ) ;
#139 = CC_DESIGN_DATE_AND_TIME_ASSIGNMENT ( #91, #12, ( #151 ) ) ;
#140 = VERTEX_POINT ( 'NONE', #158 ) ;
#141 = COORDINATED_UNIVERSAL_TIME_OFFSET ( 5, 0, .BEHIND. ) ;
#142 = APPLICATION_PROTOCOL_DEFINITION ( 'international standard', 'config_control_design', 1994, #117 ) ;
#143 = CALENDAR_DATE ( 2017, 10, 4 ) ;
#144 = CYLINDRICAL_SURFACE ( 'NONE', #75, 6.250000000000000000 ) ;
#145 = DIRECTION ( 'NONE',  ( 1.000000000000000000, 0.0000000000000000000, 0.0000000000000000000 ) ) ;
#146 = PRODUCT_DEFINITION_FORMATION_WITH_SPECIFIED_SOURCE ( 'ANY', '', #49, .NOT_KNOWN. ) ;
#147 = DIRECTION ( 'NONE',  ( -0.0000000000000000000, -0.0000000000000000000, 1.000000000000000000 ) ) ;
#148 = CARTESIAN_POINT ( 'NONE',  ( 0.0000000000000000000, 0.0000000000000000000, -0.5000000000000000000 ) ) ;
#149 = DIRECTION ( 'NONE',  ( 0.0000000000000000000, -0.0000000000000000000, 1.000000000000000000 ) ) ;
#150 = CARTESIAN_POINT ( 'NONE',  ( 0.0000000000000000000, 0.0000000000000000000, 0.5000000000000000000 ) ) ;
#151 = PRODUCT_DEFINITION ( 'UNKNOWN', '', #146, #92 ) ;
#152 = CYLINDRICAL_SURFACE ( 'NONE', #63, 6.250000000000000000 ) ;
#153 = APPROVAL ( #133, 'UNSPECIFIED' ) ;
#154 = AXIS2_PLACEMENT_3D ( 'NONE', #150, #52, #168 ) ;
#155 = APPROVAL_STATUS ( 'not_yet_approved' ) ;
#156 = LOCAL_TIME ( 11, 40, 5.000000000000000000, #138 ) ;
#157 = AXIS2_PLACEMENT_3D ( 'NONE', #72, #115, #36 ) ;
#158 = CARTESIAN_POINT ( 'NONE',  ( -6.250000000000000000, 7.654042494670957600E-016, 0.5000000000000000000 ) ) ;
#159 = CIRCLE ( 'NONE', #132, 6.250000000000000000 ) ;
#160 = CC_DESIGN_APPROVAL ( #153, ( #146 ) ) ;
#161 = AXIS2_PLACEMENT_3D ( 'NONE', #106, #38, #70 ) ;
#162 = COORDINATED_UNIVERSAL_TIME_OFFSET ( 5, 0, .BEHIND. ) ;
#163 = PERSON_AND_ORGANIZATION_ROLE ( 'classification_officer' ) ;
#164 = ADVANCED_FACE ( 'NONE', ( #108 ), #152, .T. ) ;
#165 = EDGE_CURVE ( 'NONE', #96, #140, #67, .T. ) ;
#166 = ORIENTED_EDGE ( 'NONE', *, *, #81, .F. ) ;
#167 = CARTESIAN_POINT ( 'NONE',  ( 0.0000000000000000000, 0.0000000000000000000, 0.0000000000000000000 ) ) ;
#168 = DIRECTION ( 'NONE',  ( 1.000000000000000000, 0.0000000000000000000, 0.0000000000000000000 ) ) ;
#169 = CALENDAR_DATE ( 2017, 10, 4 ) ;
#170 = PERSON ( 'UNSPECIFIED', 'UNSPECIFIED', 'UNSPECIFIED', ('UNSPECIFIED'), ('UNSPECIFIED'), ('UNSPECIFIED') ) ;
#171 = ORIENTED_EDGE ( 'NONE', *, *, #26, .F. ) ;
#172 = UNCERTAINTY_MEASURE_WITH_UNIT (LENGTH_MEASURE( 1.000000000000000100E-005 ), #44, 'distance_accuracy_value', 'NONE');
#173 = CIRCLE ( 'NONE', #154, 6.250000000000000000 ) ;
#174 = EDGE_CURVE ( 'NONE', #114, #96, #93, .T. ) ;
#175 = PERSON_AND_ORGANIZATION ( #170, #21 ) ;
ENDSEC;
END-ISO-10303-21;
