ISO-10303-21;
HEADER;
FILE_DESCRIPTION (( 'STEP AP203' ),
    '1' );
FILE_NAME ('Web Model 68507.STEP',
    '2017-02-01T13:23:57',
    ( '' ),
    ( '' ),
    'SwSTEP 2.0',
    'SolidWorks 2016',
    '' );
FILE_SCHEMA (( 'CONFIG_CONTROL_DESIGN' ));
ENDSEC;

DATA;
#1 = APPROVAL_PERSON_ORGANIZATION ( #36, #153, #164 ) ;
#2 = ADVANCED_FACE ( 'NONE', ( #24 ), #151, .T. ) ;
#3 = CC_DESIGN_APPROVAL ( #123, ( #74 ) ) ;
#4 = CARTESIAN_POINT ( 'NONE',  ( 0.0000000000000000000, 0.0000000000000000000, 0.0000000000000000000 ) ) ;
#5 = PERSON_AND_ORGANIZATION ( #88, #81 ) ;
#6 = EDGE_LOOP ( 'NONE', ( #95, #58 ) ) ;
#7 = CC_DESIGN_PERSON_AND_ORGANIZATION_ASSIGNMENT ( #5, #72, ( #74 ) ) ;
#8 = CALENDAR_DATE ( 2017, 1, 2 ) ;
#9 = CARTESIAN_POINT ( 'NONE',  ( 0.0000000000000000000, 0.0000000000000000000, 1.000000000000000000 ) ) ;
#10 = CIRCLE ( 'NONE', #19, 12.50000000000000000 ) ;
#11 = DATE_AND_TIME ( #148, #51 ) ;
#12 = CC_DESIGN_APPROVAL ( #153, ( #100 ) ) ;
#13 = ORIENTED_EDGE ( 'NONE', *, *, #144, .T. ) ;
#14 = DATE_TIME_ROLE ( 'classification_date' ) ;
#15 = APPROVAL_PERSON_ORGANIZATION ( #57, #42, #86 ) ;
#16 = DIRECTION ( 'NONE',  ( 0.0000000000000000000, 0.0000000000000000000, 1.000000000000000000 ) ) ;
#17 = CYLINDRICAL_SURFACE ( 'NONE', #79, 12.50000000000000000 ) ;
#18 = CC_DESIGN_PERSON_AND_ORGANIZATION_ASSIGNMENT ( #80, #102, ( #163 ) ) ;
#19 = AXIS2_PLACEMENT_3D ( 'NONE', #96, #97, #161 ) ;
#20 = PERSON_AND_ORGANIZATION_ROLE ( 'design_owner' ) ;
#21 = PERSON_AND_ORGANIZATION ( #88, #81 ) ;
#22 = PLANE ( 'NONE',  #160 ) ;
#23 = DIRECTION ( 'NONE',  ( 1.000000000000000000, 0.0000000000000000000, 0.0000000000000000000 ) ) ;
#24 = FACE_OUTER_BOUND ( 'NONE', #70, .T. ) ;
#25 = DIRECTION ( 'NONE',  ( 1.000000000000000000, 0.0000000000000000000, -0.0000000000000000000 ) ) ;
#26 = VERTEX_POINT ( 'NONE', #78 ) ;
#27 = COORDINATED_UNIVERSAL_TIME_OFFSET ( 5, 0, .BEHIND. ) ;
#28 = CC_DESIGN_SECURITY_CLASSIFICATION ( #163, ( #74 ) ) ;
#29 = EDGE_LOOP ( 'NONE', ( #32, #130, #118, #13 ) ) ;
#30 = CC_DESIGN_DATE_AND_TIME_ASSIGNMENT ( #107, #14, ( #163 ) ) ;
#31 = AXIS2_PLACEMENT_3D ( 'NONE', #77, #109, #23 ) ;
#32 = ORIENTED_EDGE ( 'NONE', *, *, #117, .F. ) ;
#33 = AXIS2_PLACEMENT_3D ( 'NONE', #90, #16, #171 ) ;
#34 = APPROVAL_ROLE ( '' ) ;
#35 = VECTOR ( 'NONE', #43, 1000.000000000000000 ) ;
#36 = PERSON_AND_ORGANIZATION ( #88, #81 ) ;
#37 = ORIENTED_EDGE ( 'NONE', *, *, #84, .T. ) ;
#38 = CARTESIAN_POINT ( 'NONE',  ( 0.0000000000000000000, 0.0000000000000000000, 1.000000000000000000 ) ) ;
#39 = CARTESIAN_POINT ( 'NONE',  ( -12.50000000000000000, 0.0000000000000000000, 1.000000000000000000 ) ) ;
#40 = CARTESIAN_POINT ( 'NONE',  ( 12.50000000000000000, 1.530808498934191500E-015, 1.000000000000000000 ) ) ;
#41 = CIRCLE ( 'NONE', #50, 12.50000000000000000 ) ;
#42 = APPROVAL ( #119, 'UNSPECIFIED' ) ;
#43 = DIRECTION ( 'NONE',  ( -0.0000000000000000000, -0.0000000000000000000, -1.000000000000000000 ) ) ;
#44 = EDGE_CURVE ( 'NONE', #175, #26, #162, .T. ) ;
#45 = EDGE_CURVE ( 'NONE', #175, #147, #41, .T. ) ;
#46 = CC_DESIGN_PERSON_AND_ORGANIZATION_ASSIGNMENT ( #115, #20, ( #121 ) ) ;
#47 = CIRCLE ( 'NONE', #31, 12.50000000000000000 ) ;
#48 = PRODUCT_RELATED_PRODUCT_CATEGORY ( 'detail', '', ( #121 ) ) ;
#49 = COORDINATED_UNIVERSAL_TIME_OFFSET ( 5, 0, .BEHIND. ) ;
#50 = AXIS2_PLACEMENT_3D ( 'NONE', #9, #94, #111 ) ;
#51 = LOCAL_TIME ( 8, 23, 57.00000000000000000, #49 ) ;
#52 = DIRECTION ( 'NONE',  ( 1.000000000000000000, 0.0000000000000000000, -0.0000000000000000000 ) ) ;
#53 = DIRECTION ( 'NONE',  ( -0.0000000000000000000, -0.0000000000000000000, -1.000000000000000000 ) ) ;
#54 = CC_DESIGN_PERSON_AND_ORGANIZATION_ASSIGNMENT ( #21, #98, ( #100 ) ) ;
#55 = APPROVAL_DATE_TIME ( #11, #153 ) ;
#56 = DATE_TIME_ROLE ( 'creation_date' ) ;
#57 = PERSON_AND_ORGANIZATION ( #88, #81 ) ;
#58 = ORIENTED_EDGE ( 'NONE', *, *, #84, .F. ) ;
#59 = APPLICATION_CONTEXT ( 'configuration controlled 3d designs of mechanical parts and assemblies' ) ;
#60 = VERTEX_POINT ( 'NONE', #64 ) ;
#61 = COORDINATED_UNIVERSAL_TIME_OFFSET ( 5, 0, .BEHIND. ) ;
#62 = DIRECTION ( 'NONE',  ( 0.0000000000000000000, 0.0000000000000000000, 1.000000000000000000 ) ) ;
#63 =( GEOMETRIC_REPRESENTATION_CONTEXT ( 3 ) GLOBAL_UNCERTAINTY_ASSIGNED_CONTEXT ( ( #132 ) ) GLOBAL_UNIT_ASSIGNED_CONTEXT ( ( #99, #75, #141 ) ) REPRESENTATION_CONTEXT ( 'NONE', 'WORKASPACE' ) );
#64 = CARTESIAN_POINT ( 'NONE',  ( 12.50000000000000000, 1.530808498934191500E-015, 0.0000000000000000000 ) ) ;
#65 = CARTESIAN_POINT ( 'NONE',  ( 0.0000000000000000000, 0.0000000000000000000, 0.0000000000000000000 ) ) ;
#66 = APPROVAL_STATUS ( 'not_yet_approved' ) ;
#67 = DATE_AND_TIME ( #145, #140 ) ;
#68 = ADVANCED_FACE ( 'NONE', ( #110 ), #17, .T. ) ;
#69 = COORDINATED_UNIVERSAL_TIME_OFFSET ( 5, 0, .BEHIND. ) ;
#70 = EDGE_LOOP ( 'NONE', ( #166, #149, #37, #133 ) ) ;
#71 = LINE ( 'NONE', #154, #35 ) ;
#72 = PERSON_AND_ORGANIZATION_ROLE ( 'design_supplier' ) ;
#73 = APPROVAL_DATE_TIME ( #67, #42 ) ;
#74 = PRODUCT_DEFINITION_FORMATION_WITH_SPECIFIED_SOURCE ( 'ANY', '', #121, .NOT_KNOWN. ) ;
#75 =( NAMED_UNIT ( * ) PLANE_ANGLE_UNIT ( ) SI_UNIT ( $, .RADIAN. ) );
#76 = SHAPE_DEFINITION_REPRESENTATION ( #104, #108 ) ;
#77 = CARTESIAN_POINT ( 'NONE',  ( 0.0000000000000000000, 0.0000000000000000000, 0.0000000000000000000 ) ) ;
#78 = CARTESIAN_POINT ( 'NONE',  ( -12.50000000000000000, 0.0000000000000000000, 0.0000000000000000000 ) ) ;
#79 = AXIS2_PLACEMENT_3D ( 'NONE', #38, #53, #134 ) ;
#80 = PERSON_AND_ORGANIZATION ( #88, #81 ) ;
#81 = ORGANIZATION ( 'UNSPECIFIED', 'UNSPECIFIED', '' ) ;
#82 = EDGE_CURVE ( 'NONE', #147, #175, #10, .T. ) ;
#83 = ADVANCED_FACE ( 'NONE', ( #85 ), #173, .F. ) ;
#84 = EDGE_CURVE ( 'NONE', #60, #26, #47, .T. ) ;
#85 = FACE_OUTER_BOUND ( 'NONE', #6, .T. ) ;
#86 = APPROVAL_ROLE ( '' ) ;
#87 = CC_DESIGN_PERSON_AND_ORGANIZATION_ASSIGNMENT ( #93, #159, ( #74 ) ) ;
#88 = PERSON ( 'UNSPECIFIED', 'UNSPECIFIED', 'UNSPECIFIED', ('UNSPECIFIED'), ('UNSPECIFIED'), ('UNSPECIFIED') ) ;
#89 = LOCAL_TIME ( 8, 23, 57.00000000000000000, #131 ) ;
#90 = CARTESIAN_POINT ( 'NONE',  ( 0.0000000000000000000, 0.0000000000000000000, 0.0000000000000000000 ) ) ;
#91 = ORIENTED_EDGE ( 'NONE', *, *, #82, .T. ) ;
#92 = MECHANICAL_CONTEXT ( 'NONE', #165, 'mechanical' ) ;
#93 = PERSON_AND_ORGANIZATION ( #88, #81 ) ;
#94 = DIRECTION ( 'NONE',  ( 0.0000000000000000000, 0.0000000000000000000, 1.000000000000000000 ) ) ;
#95 = ORIENTED_EDGE ( 'NONE', *, *, #144, .F. ) ;
#96 = CARTESIAN_POINT ( 'NONE',  ( 0.0000000000000000000, 0.0000000000000000000, 1.000000000000000000 ) ) ;
#97 = DIRECTION ( 'NONE',  ( 0.0000000000000000000, 0.0000000000000000000, 1.000000000000000000 ) ) ;
#98 = PERSON_AND_ORGANIZATION_ROLE ( 'creator' ) ;
#99 =( LENGTH_UNIT ( ) NAMED_UNIT ( * ) SI_UNIT ( .MILLI., .METRE. ) );
#100 = PRODUCT_DEFINITION ( 'UNKNOWN', '', #74, #167 ) ;
#101 = SECURITY_CLASSIFICATION_LEVEL ( 'unclassified' ) ;
#102 = PERSON_AND_ORGANIZATION_ROLE ( 'classification_officer' ) ;
#103 = PERSON_AND_ORGANIZATION ( #88, #81 ) ;
#104 = PRODUCT_DEFINITION_SHAPE ( 'NONE', 'NONE',  #100 ) ;
#105 = APPLICATION_PROTOCOL_DEFINITION ( 'international standard', 'config_control_design', 1994, #165 ) ;
#106 = ORIENTED_EDGE ( 'NONE', *, *, #45, .T. ) ;
#107 = DATE_AND_TIME ( #120, #152 ) ;
#108 = ADVANCED_BREP_SHAPE_REPRESENTATION ( 'Web Model 68507', ( #170, #33 ), #63 ) ;
#109 = DIRECTION ( 'NONE',  ( 0.0000000000000000000, 0.0000000000000000000, 1.000000000000000000 ) ) ;
#110 = FACE_OUTER_BOUND ( 'NONE', #29, .T. ) ;
#111 = DIRECTION ( 'NONE',  ( 1.000000000000000000, 0.0000000000000000000, 0.0000000000000000000 ) ) ;
#112 = CC_DESIGN_DATE_AND_TIME_ASSIGNMENT ( #157, #56, ( #100 ) ) ;
#113 = AXIS2_PLACEMENT_3D ( 'NONE', #65, #62, #25 ) ;
#114 = ADVANCED_FACE ( 'NONE', ( #156 ), #22, .T. ) ;
#115 = PERSON_AND_ORGANIZATION ( #88, #81 ) ;
#116 = DIRECTION ( 'NONE',  ( 0.0000000000000000000, 0.0000000000000000000, 1.000000000000000000 ) ) ;
#117 = EDGE_CURVE ( 'NONE', #147, #60, #71, .T. ) ;
#118 = ORIENTED_EDGE ( 'NONE', *, *, #44, .T. ) ;
#119 = APPROVAL_STATUS ( 'not_yet_approved' ) ;
#120 = CALENDAR_DATE ( 2017, 1, 2 ) ;
#121 = PRODUCT ( 'Web Model 68507', 'Web Model 68507', '', ( #92 ) ) ;
#122 = APPROVAL_PERSON_ORGANIZATION ( #103, #123, #34 ) ;
#123 = APPROVAL ( #66, 'UNSPECIFIED' ) ;
#124 = LOCAL_TIME ( 8, 23, 57.00000000000000000, #27 ) ;
#125 = DATE_AND_TIME ( #168, #89 ) ;
#126 = DIRECTION ( 'NONE',  ( 0.0000000000000000000, 0.0000000000000000000, 1.000000000000000000 ) ) ;
#127 = CARTESIAN_POINT ( 'NONE',  ( 0.0000000000000000000, 0.0000000000000000000, 1.000000000000000000 ) ) ;
#128 = VECTOR ( 'NONE', #137, 1000.000000000000000 ) ;
#129 = CC_DESIGN_APPROVAL ( #42, ( #163 ) ) ;
#130 = ORIENTED_EDGE ( 'NONE', *, *, #45, .F. ) ;
#131 = COORDINATED_UNIVERSAL_TIME_OFFSET ( 5, 0, .BEHIND. ) ;
#132 = UNCERTAINTY_MEASURE_WITH_UNIT (LENGTH_MEASURE( 1.000000000000000100E-005 ), #99, 'distance_accuracy_value', 'NONE');
#133 = ORIENTED_EDGE ( 'NONE', *, *, #44, .F. ) ;
#134 = DIRECTION ( 'NONE',  ( -1.000000000000000000, 0.0000000000000000000, 0.0000000000000000000 ) ) ;
#135 = DIRECTION ( 'NONE',  ( -0.0000000000000000000, -0.0000000000000000000, -1.000000000000000000 ) ) ;
#136 = CLOSED_SHELL ( 'NONE', ( #2, #68, #114, #83 ) ) ;
#137 = DIRECTION ( 'NONE',  ( -0.0000000000000000000, -0.0000000000000000000, -1.000000000000000000 ) ) ;
#138 = APPLICATION_PROTOCOL_DEFINITION ( 'international standard', 'config_control_design', 1994, #59 ) ;
#139 = CARTESIAN_POINT ( 'NONE',  ( -12.50000000000000000, 0.0000000000000000000, 1.000000000000000000 ) ) ;
#140 = LOCAL_TIME ( 8, 23, 57.00000000000000000, #61 ) ;
#141 =( NAMED_UNIT ( * ) SI_UNIT ( $, .STERADIAN. ) SOLID_ANGLE_UNIT ( ) );
#142 = DIRECTION ( 'NONE',  ( 1.000000000000000000, 0.0000000000000000000, 0.0000000000000000000 ) ) ;
#143 = CIRCLE ( 'NONE', #155, 12.50000000000000000 ) ;
#144 = EDGE_CURVE ( 'NONE', #26, #60, #143, .T. ) ;
#145 = CALENDAR_DATE ( 2017, 1, 2 ) ;
#146 = EDGE_LOOP ( 'NONE', ( #106, #91 ) ) ;
#147 = VERTEX_POINT ( 'NONE', #40 ) ;
#148 = CALENDAR_DATE ( 2017, 1, 2 ) ;
#149 = ORIENTED_EDGE ( 'NONE', *, *, #117, .T. ) ;
#150 = DIRECTION ( 'NONE',  ( -1.000000000000000000, 0.0000000000000000000, 0.0000000000000000000 ) ) ;
#151 = CYLINDRICAL_SURFACE ( 'NONE', #169, 12.50000000000000000 ) ;
#152 = LOCAL_TIME ( 8, 23, 57.00000000000000000, #69 ) ;
#153 = APPROVAL ( #172, 'UNSPECIFIED' ) ;
#154 = CARTESIAN_POINT ( 'NONE',  ( 12.50000000000000000, 1.530808498934191500E-015, 1.000000000000000000 ) ) ;
#155 = AXIS2_PLACEMENT_3D ( 'NONE', #4, #116, #142 ) ;
#156 = FACE_OUTER_BOUND ( 'NONE', #146, .T. ) ;
#157 = DATE_AND_TIME ( #8, #124 ) ;
#158 = APPROVAL_DATE_TIME ( #125, #123 ) ;
#159 = PERSON_AND_ORGANIZATION_ROLE ( 'creator' ) ;
#160 = AXIS2_PLACEMENT_3D ( 'NONE', #174, #126, #52 ) ;
#161 = DIRECTION ( 'NONE',  ( 1.000000000000000000, 0.0000000000000000000, 0.0000000000000000000 ) ) ;
#162 = LINE ( 'NONE', #39, #128 ) ;
#163 = SECURITY_CLASSIFICATION ( '', '', #101 ) ;
#164 = APPROVAL_ROLE ( '' ) ;
#165 = APPLICATION_CONTEXT ( 'configuration controlled 3d designs of mechanical parts and assemblies' ) ;
#166 = ORIENTED_EDGE ( 'NONE', *, *, #82, .F. ) ;
#167 = DESIGN_CONTEXT ( 'detailed design', #59, 'design' ) ;
#168 = CALENDAR_DATE ( 2017, 1, 2 ) ;
#169 = AXIS2_PLACEMENT_3D ( 'NONE', #127, #135, #150 ) ;
#170 = MANIFOLD_SOLID_BREP ( 'Extrude1', #136 ) ;
#171 = DIRECTION ( 'NONE',  ( 1.000000000000000000, 0.0000000000000000000, 0.0000000000000000000 ) ) ;
#172 = APPROVAL_STATUS ( 'not_yet_approved' ) ;
#173 = PLANE ( 'NONE',  #113 ) ;
#174 = CARTESIAN_POINT ( 'NONE',  ( 0.0000000000000000000, 0.0000000000000000000, 1.000000000000000000 ) ) ;
#175 = VERTEX_POINT ( 'NONE', #139 ) ;
ENDSEC;
END-ISO-10303-21;
