ISO-10303-21;
HEADER;
FILE_DESCRIPTION (( 'STEP AP203' ),
    '1' );
FILE_NAME ('Web Model 34430_13328.step',
    '2020-11-03T22:12:20',
    ( '' ),
    ( '' ),
    'SwSTEP 2.0',
    'SolidWorks 2018',
    '' );
FILE_SCHEMA (( 'CONFIG_CONTROL_DESIGN' ));
ENDSEC;

DATA;
#1 =( NAMED_UNIT ( * ) SI_UNIT ( $, .STERADIAN. ) SOLID_ANGLE_UNIT ( ) );
#2 = UNCERTAINTY_MEASURE_WITH_UNIT (LENGTH_MEASURE( 1.000000000000000082E-05 ), #90, 'distance_accuracy_value', 'NONE');
#3 = ORIENTED_EDGE ( 'NONE', *, *, #74, .F. ) ;
#4 = DESIGN_CONTEXT ( 'detailed design', #148, 'design' ) ;
#5 = DATE_AND_TIME ( #52, #68 ) ;
#6 = EDGE_LOOP ( 'NONE', ( #36, #93 ) ) ;
#7 = CIRCLE ( 'NONE', #157, 25.00000000000000000 ) ;
#8 = EDGE_CURVE ( 'NONE', #85, #95, #128, .T. ) ;
#9 = APPROVAL_DATE_TIME ( #108, #89 ) ;
#10 = CC_DESIGN_APPROVAL ( #130, ( #91 ) ) ;
#11 = PERSON_AND_ORGANIZATION ( #116, #20 ) ;
#12 = DIRECTION ( 'NONE',  ( -0.0000000000000000000, -0.0000000000000000000, -1.000000000000000000 ) ) ;
#13 = APPROVAL_STATUS ( 'not_yet_approved' ) ;
#14 = VECTOR ( 'NONE', #12, 1000.000000000000000 ) ;
#15 = DATE_AND_TIME ( #161, #43 ) ;
#16 = PRODUCT_DEFINITION_SHAPE ( 'NONE', 'NONE',  #133 ) ;
#17 = SHAPE_DEFINITION_REPRESENTATION ( #16, #140 ) ;
#18 = CYLINDRICAL_SURFACE ( 'NONE', #150, 25.00000000000000000 ) ;
#19 = CARTESIAN_POINT ( 'NONE',  ( -25.00000000000000000, 0.0000000000000000000, 0.0000000000000000000 ) ) ;
#20 = ORGANIZATION ( 'UNSPECIFIED', 'UNSPECIFIED', '' ) ;
#21 = CARTESIAN_POINT ( 'NONE',  ( 0.0000000000000000000, 0.0000000000000000000, 0.0000000000000000000 ) ) ;
#22 = CALENDAR_DATE ( 2020, 3, 11 ) ;
#23 = LINE ( 'NONE', #145, #53 ) ;
#24 = DIRECTION ( 'NONE',  ( 0.0000000000000000000, 0.0000000000000000000, 1.000000000000000000 ) ) ;
#25 = CARTESIAN_POINT ( 'NONE',  ( 25.00000000000000000, 3.061616997868383043E-15, 6.000000000000000000 ) ) ;
#26 = ORIENTED_EDGE ( 'NONE', *, *, #87, .F. ) ;
#27 = CARTESIAN_POINT ( 'NONE',  ( 0.0000000000000000000, 0.0000000000000000000, 6.000000000000000000 ) ) ;
#28 = PERSON_AND_ORGANIZATION ( #116, #20 ) ;
#29 = ORIENTED_EDGE ( 'NONE', *, *, #118, .T. ) ;
#30 = EDGE_CURVE ( 'NONE', #79, #31, #58, .T. ) ;
#31 = VERTEX_POINT ( 'NONE', #64 ) ;
#32 = COORDINATED_UNIVERSAL_TIME_OFFSET ( 5, 0, .BEHIND. ) ;
#33 = CLOSED_SHELL ( 'NONE', ( #71, #144, #153, #97 ) ) ;
#34 = CARTESIAN_POINT ( 'NONE',  ( 0.0000000000000000000, 0.0000000000000000000, 6.000000000000000000 ) ) ;
#35 = PERSON_AND_ORGANIZATION ( #116, #20 ) ;
#36 = ORIENTED_EDGE ( 'NONE', *, *, #87, .T. ) ;
#37 = CARTESIAN_POINT ( 'NONE',  ( 0.0000000000000000000, 0.0000000000000000000, 6.000000000000000000 ) ) ;
#38 = AXIS2_PLACEMENT_3D ( 'NONE', #135, #173, #105 ) ;
#39 = DIRECTION ( 'NONE',  ( 1.000000000000000000, 0.0000000000000000000, 0.0000000000000000000 ) ) ;
#40 = APPLICATION_PROTOCOL_DEFINITION ( 'international standard', 'config_control_design', 1994, #148 ) ;
#41 = DIRECTION ( 'NONE',  ( 1.000000000000000000, 0.0000000000000000000, 0.0000000000000000000 ) ) ;
#42 = PERSON_AND_ORGANIZATION_ROLE ( 'classification_officer' ) ;
#43 = LOCAL_TIME ( 17, 12, 20.00000000000000000, #149 ) ;
#44 = ORIENTED_EDGE ( 'NONE', *, *, #74, .T. ) ;
#45 = AXIS2_PLACEMENT_3D ( 'NONE', #99, #156, #171 ) ;
#46 = FACE_OUTER_BOUND ( 'NONE', #62, .T. ) ;
#47 = COORDINATED_UNIVERSAL_TIME_OFFSET ( 5, 0, .BEHIND. ) ;
#48 = ORIENTED_EDGE ( 'NONE', *, *, #124, .T. ) ;
#49 = PRODUCT_RELATED_PRODUCT_CATEGORY ( 'detail', '', ( #102 ) ) ;
#50 = CARTESIAN_POINT ( 'NONE',  ( 0.0000000000000000000, 0.0000000000000000000, 0.0000000000000000000 ) ) ;
#51 = CIRCLE ( 'NONE', #60, 25.00000000000000000 ) ;
#52 = CALENDAR_DATE ( 2020, 3, 11 ) ;
#53 = VECTOR ( 'NONE', #98, 1000.000000000000000 ) ;
#54 = PERSON_AND_ORGANIZATION_ROLE ( 'design_supplier' ) ;
#55 = CARTESIAN_POINT ( 'NONE',  ( 0.0000000000000000000, 0.0000000000000000000, 0.0000000000000000000 ) ) ;
#56 = PERSON_AND_ORGANIZATION_ROLE ( 'design_owner' ) ;
#57 = CC_DESIGN_PERSON_AND_ORGANIZATION_ASSIGNMENT ( #142, #42, ( #91 ) ) ;
#58 = CIRCLE ( 'NONE', #45, 25.00000000000000000 ) ;
#59 = PERSON_AND_ORGANIZATION ( #116, #20 ) ;
#60 = AXIS2_PLACEMENT_3D ( 'NONE', #34, #129, #65 ) ;
#61 = PERSON_AND_ORGANIZATION ( #116, #20 ) ;
#62 = EDGE_LOOP ( 'NONE', ( #170, #123 ) ) ;
#63 = DIRECTION ( 'NONE',  ( -0.0000000000000000000, -0.0000000000000000000, -1.000000000000000000 ) ) ;
#64 = CARTESIAN_POINT ( 'NONE',  ( -25.00000000000000000, 0.0000000000000000000, 6.000000000000000000 ) ) ;
#65 = DIRECTION ( 'NONE',  ( 1.000000000000000000, 0.0000000000000000000, 0.0000000000000000000 ) ) ;
#66 = APPROVAL_ROLE ( '' ) ;
#67 = SECURITY_CLASSIFICATION_LEVEL ( 'unclassified' ) ;
#68 = LOCAL_TIME ( 17, 12, 20.00000000000000000, #78 ) ;
#69 = AXIS2_PLACEMENT_3D ( 'NONE', #77, #158, #39 ) ;
#70 = PERSON_AND_ORGANIZATION ( #116, #20 ) ;
#71 = ADVANCED_FACE ( 'NONE', ( #167 ), #18, .T. ) ;
#72 = CALENDAR_DATE ( 2020, 3, 11 ) ;
#73 = EDGE_LOOP ( 'NONE', ( #146, #26, #44, #48 ) ) ;
#74 = EDGE_CURVE ( 'NONE', #31, #95, #23, .T. ) ;
#75 = PERSON_AND_ORGANIZATION_ROLE ( 'creator' ) ;
#76 = CC_DESIGN_APPROVAL ( #83, ( #81 ) ) ;
#77 = CARTESIAN_POINT ( 'NONE',  ( 0.0000000000000000000, 0.0000000000000000000, 0.0000000000000000000 ) ) ;
#78 = COORDINATED_UNIVERSAL_TIME_OFFSET ( 5, 0, .BEHIND. ) ;
#79 = VERTEX_POINT ( 'NONE', #114 ) ;
#80 = PERSON_AND_ORGANIZATION_ROLE ( 'creator' ) ;
#81 = PRODUCT_DEFINITION_FORMATION_WITH_SPECIFIED_SOURCE ( 'ANY', '', #102, .NOT_KNOWN. ) ;
#82 = LOCAL_TIME ( 17, 12, 20.00000000000000000, #47 ) ;
#83 = APPROVAL ( #104, 'UNSPECIFIED' ) ;
#84 = APPROVAL_DATE_TIME ( #127, #130 ) ;
#85 = VERTEX_POINT ( 'NONE', #154 ) ;
#86 = DIRECTION ( 'NONE',  ( -0.0000000000000000000, -0.0000000000000000000, -1.000000000000000000 ) ) ;
#87 = EDGE_CURVE ( 'NONE', #31, #79, #51, .T. ) ;
#88 = MECHANICAL_CONTEXT ( 'NONE', #174, 'mechanical' ) ;
#89 = APPROVAL ( #13, 'UNSPECIFIED' ) ;
#90 =( LENGTH_UNIT ( ) NAMED_UNIT ( * ) SI_UNIT ( .MILLI., .METRE. ) );
#91 = SECURITY_CLASSIFICATION ( '', '', #67 ) ;
#92 = APPROVAL_PERSON_ORGANIZATION ( #70, #83, #66 ) ;
#93 = ORIENTED_EDGE ( 'NONE', *, *, #30, .T. ) ;
#94 = CC_DESIGN_DATE_AND_TIME_ASSIGNMENT ( #117, #172, ( #91 ) ) ;
#95 = VERTEX_POINT ( 'NONE', #19 ) ;
#96 = CC_DESIGN_PERSON_AND_ORGANIZATION_ASSIGNMENT ( #61, #80, ( #133 ) ) ;
#97 = ADVANCED_FACE ( 'NONE', ( #46 ), #113, .F. ) ;
#98 = DIRECTION ( 'NONE',  ( -0.0000000000000000000, -0.0000000000000000000, -1.000000000000000000 ) ) ;
#99 = CARTESIAN_POINT ( 'NONE',  ( 0.0000000000000000000, 0.0000000000000000000, 6.000000000000000000 ) ) ;
#100 = PERSON_AND_ORGANIZATION ( #116, #20 ) ;
#101 = ORIENTED_EDGE ( 'NONE', *, *, #30, .F. ) ;
#102 = PRODUCT ( 'Web Model 34430_13328', 'Web Model 34430_13328', '', ( #88 ) ) ;
#103 = APPROVAL_STATUS ( 'not_yet_approved' ) ;
#104 = APPROVAL_STATUS ( 'not_yet_approved' ) ;
#105 = DIRECTION ( 'NONE',  ( 1.000000000000000000, 0.0000000000000000000, -0.0000000000000000000 ) ) ;
#106 =( NAMED_UNIT ( * ) PLANE_ANGLE_UNIT ( ) SI_UNIT ( $, .RADIAN. ) );
#107 = APPROVAL_DATE_TIME ( #15, #83 ) ;
#108 = DATE_AND_TIME ( #72, #82 ) ;
#109 = APPROVAL_PERSON_ORGANIZATION ( #11, #89, #147 ) ;
#110 = MANIFOLD_SOLID_BREP ( 'Boss-Extrude1', #33 ) ;
#111 = AXIS2_PLACEMENT_3D ( 'NONE', #50, #134, #175 ) ;
#112 = CC_DESIGN_PERSON_AND_ORGANIZATION_ASSIGNMENT ( #28, #54, ( #81 ) ) ;
#113 = PLANE ( 'NONE',  #111 ) ;
#114 = CARTESIAN_POINT ( 'NONE',  ( 25.00000000000000000, 3.061616997868383043E-15, 6.000000000000000000 ) ) ;
#115 = DIRECTION ( 'NONE',  ( 0.0000000000000000000, 0.0000000000000000000, 1.000000000000000000 ) ) ;
#116 = PERSON ( 'UNSPECIFIED', 'UNSPECIFIED', 'UNSPECIFIED', ('UNSPECIFIED'), ('UNSPECIFIED'), ('UNSPECIFIED') ) ;
#117 = DATE_AND_TIME ( #22, #120 ) ;
#118 = EDGE_CURVE ( 'NONE', #79, #85, #138, .T. ) ;
#119 = CC_DESIGN_APPROVAL ( #89, ( #133 ) ) ;
#120 = LOCAL_TIME ( 17, 12, 20.00000000000000000, #32 ) ;
#121 = DATE_TIME_ROLE ( 'creation_date' ) ;
#122 = CYLINDRICAL_SURFACE ( 'NONE', #165, 25.00000000000000000 ) ;
#123 = ORIENTED_EDGE ( 'NONE', *, *, #8, .F. ) ;
#124 = EDGE_CURVE ( 'NONE', #95, #85, #7, .T. ) ;
#125 = APPROVAL_PERSON_ORGANIZATION ( #59, #130, #137 ) ;
#126 = CC_DESIGN_PERSON_AND_ORGANIZATION_ASSIGNMENT ( #100, #56, ( #102 ) ) ;
#127 = DATE_AND_TIME ( #163, #159 ) ;
#128 = CIRCLE ( 'NONE', #141, 25.00000000000000000 ) ;
#129 = DIRECTION ( 'NONE',  ( 0.0000000000000000000, 0.0000000000000000000, 1.000000000000000000 ) ) ;
#130 = APPROVAL ( #103, 'UNSPECIFIED' ) ;
#131 = FACE_OUTER_BOUND ( 'NONE', #73, .T. ) ;
#132 = DIRECTION ( 'NONE',  ( -1.000000000000000000, 0.0000000000000000000, 0.0000000000000000000 ) ) ;
#133 = PRODUCT_DEFINITION ( 'UNKNOWN', '', #81, #4 ) ;
#134 = DIRECTION ( 'NONE',  ( 0.0000000000000000000, 0.0000000000000000000, 1.000000000000000000 ) ) ;
#135 = CARTESIAN_POINT ( 'NONE',  ( 0.0000000000000000000, 0.0000000000000000000, 6.000000000000000000 ) ) ;
#136 = DIRECTION ( 'NONE',  ( -1.000000000000000000, 0.0000000000000000000, 0.0000000000000000000 ) ) ;
#137 = APPROVAL_ROLE ( '' ) ;
#138 = LINE ( 'NONE', #25, #14 ) ;
#139 = ORIENTED_EDGE ( 'NONE', *, *, #8, .T. ) ;
#140 = ADVANCED_BREP_SHAPE_REPRESENTATION ( 'Web Model 34430_13328', ( #110, #69 ), #166 ) ;
#141 = AXIS2_PLACEMENT_3D ( 'NONE', #21, #115, #168 ) ;
#142 = PERSON_AND_ORGANIZATION ( #116, #20 ) ;
#143 = CC_DESIGN_SECURITY_CLASSIFICATION ( #91, ( #81 ) ) ;
#144 = ADVANCED_FACE ( 'NONE', ( #131 ), #122, .T. ) ;
#145 = CARTESIAN_POINT ( 'NONE',  ( -25.00000000000000000, 0.0000000000000000000, 6.000000000000000000 ) ) ;
#146 = ORIENTED_EDGE ( 'NONE', *, *, #118, .F. ) ;
#147 = APPROVAL_ROLE ( '' ) ;
#148 = APPLICATION_CONTEXT ( 'configuration controlled 3d designs of mechanical parts and assemblies' ) ;
#149 = COORDINATED_UNIVERSAL_TIME_OFFSET ( 5, 0, .BEHIND. ) ;
#150 = AXIS2_PLACEMENT_3D ( 'NONE', #37, #63, #132 ) ;
#151 = FACE_OUTER_BOUND ( 'NONE', #6, .T. ) ;
#152 = CC_DESIGN_PERSON_AND_ORGANIZATION_ASSIGNMENT ( #35, #75, ( #81 ) ) ;
#153 = ADVANCED_FACE ( 'NONE', ( #151 ), #160, .T. ) ;
#154 = CARTESIAN_POINT ( 'NONE',  ( 25.00000000000000000, 3.061616997868383043E-15, 0.0000000000000000000 ) ) ;
#155 = CC_DESIGN_DATE_AND_TIME_ASSIGNMENT ( #5, #121, ( #133 ) ) ;
#156 = DIRECTION ( 'NONE',  ( 0.0000000000000000000, 0.0000000000000000000, 1.000000000000000000 ) ) ;
#157 = AXIS2_PLACEMENT_3D ( 'NONE', #55, #24, #41 ) ;
#158 = DIRECTION ( 'NONE',  ( 0.0000000000000000000, 0.0000000000000000000, 1.000000000000000000 ) ) ;
#159 = LOCAL_TIME ( 17, 12, 20.00000000000000000, #169 ) ;
#160 = PLANE ( 'NONE',  #38 ) ;
#161 = CALENDAR_DATE ( 2020, 3, 11 ) ;
#162 = APPLICATION_PROTOCOL_DEFINITION ( 'international standard', 'config_control_design', 1994, #174 ) ;
#163 = CALENDAR_DATE ( 2020, 3, 11 ) ;
#164 = EDGE_LOOP ( 'NONE', ( #101, #29, #139, #3 ) ) ;
#165 = AXIS2_PLACEMENT_3D ( 'NONE', #27, #86, #136 ) ;
#166 =( GEOMETRIC_REPRESENTATION_CONTEXT ( 3 ) GLOBAL_UNCERTAINTY_ASSIGNED_CONTEXT ( ( #2 ) ) GLOBAL_UNIT_ASSIGNED_CONTEXT ( ( #90, #106, #1 ) ) REPRESENTATION_CONTEXT ( 'NONE', 'WORKASPACE' ) );
#167 = FACE_OUTER_BOUND ( 'NONE', #164, .T. ) ;
#168 = DIRECTION ( 'NONE',  ( 1.000000000000000000, 0.0000000000000000000, 0.0000000000000000000 ) ) ;
#169 = COORDINATED_UNIVERSAL_TIME_OFFSET ( 5, 0, .BEHIND. ) ;
#170 = ORIENTED_EDGE ( 'NONE', *, *, #124, .F. ) ;
#171 = DIRECTION ( 'NONE',  ( 1.000000000000000000, 0.0000000000000000000, 0.0000000000000000000 ) ) ;
#172 = DATE_TIME_ROLE ( 'classification_date' ) ;
#173 = DIRECTION ( 'NONE',  ( 0.0000000000000000000, 0.0000000000000000000, 1.000000000000000000 ) ) ;
#174 = APPLICATION_CONTEXT ( 'configuration controlled 3d designs of mechanical parts and assemblies' ) ;
#175 = DIRECTION ( 'NONE',  ( 1.000000000000000000, 0.0000000000000000000, -0.0000000000000000000 ) ) ;
ENDSEC;
END-ISO-10303-21;
