ISO-10303-21;
HEADER;
FILE_DESCRIPTION (( 'STEP AP214' ),
    '1' );
FILE_NAME ('4785-E0W.STEP',
    '2009-12-21T17:04:49',
    ( ' ' ),
    ( ' ' ),
    'SwSTEP 2.0',
    'SolidWorks 2009',
    '' );
FILE_SCHEMA (( 'AUTOMOTIVE_DESIGN' ));
ENDSEC;

DATA;
#1 = ORIENTED_EDGE ( 'NONE', *, *, #18, .F. ) ;
#2 = EDGE_CURVE ( 'NONE', #24, #25, #69, .T. ) ;
#3 = EDGE_LOOP ( 'NONE', ( #1, #31 ) ) ;
#4 = ADVANCED_FACE ( 'NONE', ( #60 ), #112, .T. ) ;
#5 = ORIENTED_EDGE ( 'NONE', *, *, #42, .F. ) ;
#6 = ORIENTED_EDGE ( 'NONE', *, *, #14, .F. ) ;
#7 = ORIENTED_EDGE ( 'NONE', *, *, #27, .T. ) ;
#8 = ORIENTED_EDGE ( 'NONE', *, *, #49, .T. ) ;
#9 = ORIENTED_EDGE ( 'NONE', *, *, #39, .T. ) ;
#10 = EDGE_LOOP ( 'NONE', ( #6, #7, #8, #9 ) ) ;
#11 = ADVANCED_FACE ( 'NONE', ( #141 ), #134, .F. ) ;
#12 = EDGE_CURVE ( 'NONE', #16, #53, #140, .T. ) ;
#13 = ORIENTED_EDGE ( 'NONE', *, *, #14, .T. ) ;
#14 = EDGE_CURVE ( 'NONE', #19, #16, #111, .T. ) ;
#15 = ORIENTED_EDGE ( 'NONE', *, *, #12, .T. ) ;
#16 = VERTEX_POINT ( 'NONE', #139 ) ;
#17 = ORIENTED_EDGE ( 'NONE', *, *, #71, .T. ) ;
#18 = EDGE_CURVE ( 'NONE', #25, #24, #98, .T. ) ;
#19 = VERTEX_POINT ( 'NONE', #83 ) ;
#20 = ORIENTED_EDGE ( 'NONE', *, *, #18, .T. ) ;
#21 = ORIENTED_EDGE ( 'NONE', *, *, #42, .T. ) ;
#22 = ORIENTED_EDGE ( 'NONE', *, *, #27, .F. ) ;
#23 = EDGE_LOOP ( 'NONE', ( #20, #21, #48, #54, #41 ) ) ;
#24 = VERTEX_POINT ( 'NONE', #82 ) ;
#25 = VERTEX_POINT ( 'NONE', #114 ) ;
#26 = ADVANCED_FACE ( 'NONE', ( #102 ), #189, .T. ) ;
#27 = EDGE_CURVE ( 'NONE', #19, #58, #155, .T. ) ;
#28 = MANIFOLD_SOLID_BREP ( 'NONE', #36 ) ;
#29 = ADVANCED_FACE ( 'NONE', ( #174 ), #145, .F. ) ;
#30 = EDGE_LOOP ( 'NONE', ( #22, #13, #15, #17 ) ) ;
#31 = ORIENTED_EDGE ( 'NONE', *, *, #2, .F. ) ;
#32 = ADVANCED_FACE ( 'NONE', ( #147 ), #224, .F. ) ;
#33 = ORIENTED_EDGE ( 'NONE', *, *, #2, .T. ) ;
#34 = ORIENTED_EDGE ( 'NONE', *, *, #47, .T. ) ;
#35 =( NAMED_UNIT ( * ) PLANE_ANGLE_UNIT ( ) SI_UNIT ( $, .RADIAN. ) );
#36 = CLOSED_SHELL ( 'NONE', ( #26, #29, #11, #32, #4 ) ) ;
#37 = ORIENTED_EDGE ( 'NONE', *, *, #39, .F. ) ;
#38 = ORIENTED_EDGE ( 'NONE', *, *, #12, .F. ) ;
#39 = EDGE_CURVE ( 'NONE', #70, #16, #223, .T. ) ;
#40 = EDGE_LOOP ( 'NONE', ( #5, #33, #34, #38, #37 ) ) ;
#41 = ORIENTED_EDGE ( 'NONE', *, *, #47, .F. ) ;
#42 = EDGE_CURVE ( 'NONE', #24, #70, #203, .T. ) ;
#43 = MECHANICAL_DESIGN_GEOMETRIC_PRESENTATION_REPRESENTATION (  '', ( #45 ), #72 ) ;
#44 = PRESENTATION_LAYER_ASSIGNMENT (  '', '', ( #45 ) ) ;
#45 = STYLED_ITEM ( 'NONE', ( #46 ), #4 ) ;
#46 = PRESENTATION_STYLE_ASSIGNMENT (( #64 ) ) ;
#47 = EDGE_CURVE ( 'NONE', #25, #53, #212, .T. ) ;
#48 = ORIENTED_EDGE ( 'NONE', *, *, #49, .F. ) ;
#49 = EDGE_CURVE ( 'NONE', #58, #70, #205, .T. ) ;
#50 =( NAMED_UNIT ( * ) SI_UNIT ( $, .STERADIAN. ) SOLID_ANGLE_UNIT ( ) );
#51 = UNCERTAINTY_MEASURE_WITH_UNIT (LENGTH_MEASURE( 1.000000000000000100E-005 ), #57, 'distance_accuracy_value', 'NONE');
#52 =( NAMED_UNIT ( * ) SI_UNIT ( $, .STERADIAN. ) SOLID_ANGLE_UNIT ( ) );
#53 = VERTEX_POINT ( 'NONE', #206 ) ;
#54 = ORIENTED_EDGE ( 'NONE', *, *, #71, .F. ) ;
#55 = FILL_AREA_STYLE_COLOUR ( '', #59 ) ;
#56 =( NAMED_UNIT ( * ) PLANE_ANGLE_UNIT ( ) SI_UNIT ( $, .RADIAN. ) );
#57 =( LENGTH_UNIT ( ) NAMED_UNIT ( * ) SI_UNIT ( .MILLI., .METRE. ) );
#58 = VERTEX_POINT ( 'NONE', #208 ) ;
#59 = COLOUR_RGB ( '',0.9568627450980391500, 0.9490196078431372100, 0.9607843137254902200 ) ;
#60 = FACE_OUTER_BOUND ( 'NONE', #40, .T. ) ;
#61 = DIRECTION ( 'NONE',  ( -0.0000000000000000000, -0.0000000000000000000, 1.000000000000000000 ) ) ;
#62 = DIRECTION ( 'NONE',  ( 1.000000000000000000, 0.0000000000000000000, 0.0000000000000000000 ) ) ;
#63 = CARTESIAN_POINT ( 'NONE',  ( 0.0000000000000000000, 0.0000000000000000000, -4.149368917523184500 ) ) ;
#64 = SURFACE_STYLE_USAGE ( .BOTH. , #65 ) ;
#65 = SURFACE_SIDE_STYLE ('',( #66 ) ) ;
#66 = SURFACE_STYLE_FILL_AREA ( #67 ) ;
#67 = FILL_AREA_STYLE ('',( #55 ) ) ;
#68 = AXIS2_PLACEMENT_3D ( 'NONE', #63, #61, #62 ) ;
#69 = CIRCLE ( 'NONE', #68, 25.39999999999999900 ) ;
#70 = VERTEX_POINT ( 'NONE', #207 ) ;
#71 = EDGE_CURVE ( 'NONE', #53, #58, #227, .T. ) ;
#72 =( GEOMETRIC_REPRESENTATION_CONTEXT ( 3 ) GLOBAL_UNCERTAINTY_ASSIGNED_CONTEXT ( ( #51 ) ) GLOBAL_UNIT_ASSIGNED_CONTEXT ( ( #57, #56, #52 ) ) REPRESENTATION_CONTEXT ( 'NONE', 'WORKASPACE' ) );
#73 = STYLED_ITEM ( 'NONE', ( #77 ), #32 ) ;
#74 = PRESENTATION_LAYER_ASSIGNMENT (  '', '', ( #73 ) ) ;
#75 = UNCERTAINTY_MEASURE_WITH_UNIT (LENGTH_MEASURE( 1.000000000000000100E-005 ), #76, 'distance_accuracy_value', 'NONE');
#76 =( LENGTH_UNIT ( ) NAMED_UNIT ( * ) SI_UNIT ( .MILLI., .METRE. ) );
#77 = PRESENTATION_STYLE_ASSIGNMENT (( #165 ) ) ;
#78 =( NAMED_UNIT ( * ) PLANE_ANGLE_UNIT ( ) SI_UNIT ( $, .RADIAN. ) );
#79 =( NAMED_UNIT ( * ) SI_UNIT ( $, .STERADIAN. ) SOLID_ANGLE_UNIT ( ) );
#80 = MECHANICAL_DESIGN_GEOMETRIC_PRESENTATION_REPRESENTATION (  '', ( #73 ), #195 ) ;
#81 = PRESENTATION_STYLE_ASSIGNMENT (( #87 ) ) ;
#82 = CARTESIAN_POINT ( 'NONE',  ( -25.39999999999999900, 3.110500138708838200E-015, -4.149368917523184500 ) ) ;
#83 = CARTESIAN_POINT ( 'NONE',  ( 0.0000000000000000000, 4.726368222577465600E-015, -0.1493689175231932600 ) ) ;
#84 = DIRECTION ( 'NONE',  ( 1.000000000000000000, 0.0000000000000000000, 0.0000000000000000000 ) ) ;
#85 =( GEOMETRIC_REPRESENTATION_CONTEXT ( 3 ) GLOBAL_UNCERTAINTY_ASSIGNED_CONTEXT ( ( #86 ) ) GLOBAL_UNIT_ASSIGNED_CONTEXT ( ( #96, #125, #136 ) ) REPRESENTATION_CONTEXT ( 'NONE', 'WORKASPACE' ) );
#86 = UNCERTAINTY_MEASURE_WITH_UNIT (LENGTH_MEASURE( 1.000000000000000100E-005 ), #96, 'distance_accuracy_value', 'NONE');
#87 = SURFACE_STYLE_USAGE ( .BOTH. , #95 ) ;
#88 = CARTESIAN_POINT ( 'NONE',  ( 0.0000000000000000000, 0.0000000000000000000, 4.149368917523184500 ) ) ;
#89 = AXIS2_PLACEMENT_3D ( 'NONE', #88, #124, #123 ) ;
#90 = PRESENTATION_LAYER_ASSIGNMENT (  '', '', ( #97 ) ) ;
#91 = MECHANICAL_DESIGN_GEOMETRIC_PRESENTATION_REPRESENTATION (  '', ( #97 ), #85 ) ;
#92 = DIRECTION ( 'NONE',  ( 0.0000000000000000000, 1.000000000000000000, 0.0000000000000000000 ) ) ;
#93 = DIRECTION ( 'NONE',  ( -1.000000000000000000, 0.0000000000000000000, 0.0000000000000000000 ) ) ;
#94 = CARTESIAN_POINT ( 'NONE',  ( 0.0000000000000000000, 0.0000000000000000000, 77.04063108247682100 ) ) ;
#95 = SURFACE_SIDE_STYLE ('',( #109 ) ) ;
#96 =( LENGTH_UNIT ( ) NAMED_UNIT ( * ) SI_UNIT ( .MILLI., .METRE. ) );
#97 = STYLED_ITEM ( 'NONE', ( #81 ), #11 ) ;
#98 = CIRCLE ( 'NONE', #122, 25.39999999999999900 ) ;
#99 = FILL_AREA_STYLE_COLOUR ( '', #126 ) ;
#100 = FILL_AREA_STYLE ('',( #113 ) ) ;
#101 = COLOUR_RGB ( '',0.9568627450980391500, 0.9490196078431372100, 0.9607843137254902200 ) ;
#102 = FACE_OUTER_BOUND ( 'NONE', #23, .T. ) ;
#103 = DIRECTION ( 'NONE',  ( -0.0000000000000000000, -0.0000000000000000000, 1.000000000000000000 ) ) ;
#104 =( LENGTH_UNIT ( ) NAMED_UNIT ( * ) SI_UNIT ( .MILLI., .METRE. ) );
#105 = PRESENTATION_STYLE_ASSIGNMENT (( #106 ) ) ;
#106 = SURFACE_STYLE_USAGE ( .BOTH. , #107 ) ;
#107 = SURFACE_SIDE_STYLE ('',( #108 ) ) ;
#108 = SURFACE_STYLE_FILL_AREA ( #100 ) ;
#109 = SURFACE_STYLE_FILL_AREA ( #110 ) ;
#110 = FILL_AREA_STYLE ('',( #99 ) ) ;
#111 = CIRCLE ( 'NONE', #132, 77.19000000000001200 ) ;
#112 = CYLINDRICAL_SURFACE ( 'NONE', #129, 25.39999999999999900 ) ;
#113 = FILL_AREA_STYLE_COLOUR ( '', #101 ) ;
#114 = CARTESIAN_POINT ( 'NONE',  ( 25.39999999999999900, 0.0000000000000000000, -4.149368917523184500 ) ) ;
#115 = UNCERTAINTY_MEASURE_WITH_UNIT (LENGTH_MEASURE( 1.000000000000000100E-005 ), #104, 'distance_accuracy_value', 'NONE');
#116 = MECHANICAL_DESIGN_GEOMETRIC_PRESENTATION_REPRESENTATION (  '', ( #118 ), #138 ) ;
#117 = PRESENTATION_LAYER_ASSIGNMENT (  '', '', ( #118 ) ) ;
#118 = STYLED_ITEM ( 'NONE', ( #105 ), #26 ) ;
#119 = CARTESIAN_POINT ( 'NONE',  ( 0.0000000000000000000, 0.0000000000000000000, 6.867784352906140200 ) ) ;
#120 = DIRECTION ( 'NONE',  ( -0.0000000000000000000, -0.0000000000000000000, 1.000000000000000000 ) ) ;
#121 = CARTESIAN_POINT ( 'NONE',  ( 0.0000000000000000000, 0.0000000000000000000, -4.149368917523184500 ) ) ;
#122 = AXIS2_PLACEMENT_3D ( 'NONE', #121, #120, #84 ) ;
#123 = DIRECTION ( 'NONE',  ( 1.000000000000000000, 0.0000000000000000000, 0.0000000000000000000 ) ) ;
#124 = DIRECTION ( 'NONE',  ( -0.0000000000000000000, -0.0000000000000000000, 1.000000000000000000 ) ) ;
#125 =( NAMED_UNIT ( * ) PLANE_ANGLE_UNIT ( ) SI_UNIT ( $, .RADIAN. ) );
#126 = COLOUR_RGB ( '',0.9568627450980391500, 0.9490196078431372100, 0.9607843137254902200 ) ;
#127 = DIRECTION ( 'NONE',  ( -1.224606353822377300E-016, -1.000000000000000000, 0.0000000000000000000 ) ) ;
#128 = DIRECTION ( 'NONE',  ( -1.000000000000000000, 1.224606353822377300E-016, 0.0000000000000000000 ) ) ;
#129 = AXIS2_PLACEMENT_3D ( 'NONE', #119, #103, #135 ) ;
#130 =( NAMED_UNIT ( * ) PLANE_ANGLE_UNIT ( ) SI_UNIT ( $, .RADIAN. ) );
#131 = CARTESIAN_POINT ( 'NONE',  ( 0.0000000000000000000, 0.0000000000000000000, 77.04063108247682100 ) ) ;
#132 = AXIS2_PLACEMENT_3D ( 'NONE', #131, #128, #127 ) ;
#133 = AXIS2_PLACEMENT_3D ( 'NONE', #94, #93, #92 ) ;
#134 = SPHERICAL_SURFACE ( 'NONE', #133, 77.19000000000001200 ) ;
#135 = DIRECTION ( 'NONE',  ( 1.000000000000000000, 0.0000000000000000000, 0.0000000000000000000 ) ) ;
#136 =( NAMED_UNIT ( * ) SI_UNIT ( $, .STERADIAN. ) SOLID_ANGLE_UNIT ( ) );
#137 =( NAMED_UNIT ( * ) SI_UNIT ( $, .STERADIAN. ) SOLID_ANGLE_UNIT ( ) );
#138 =( GEOMETRIC_REPRESENTATION_CONTEXT ( 3 ) GLOBAL_UNCERTAINTY_ASSIGNED_CONTEXT ( ( #115 ) ) GLOBAL_UNIT_ASSIGNED_CONTEXT ( ( #104, #130, #137 ) ) REPRESENTATION_CONTEXT ( 'NONE', 'WORKASPACE' ) );
#139 = CARTESIAN_POINT ( 'NONE',  ( -3.110500138708838900E-015, -25.40000000000000600, 4.149368917523176500 ) ) ;
#140 = CIRCLE ( 'NONE', #89, 25.39999999999999900 ) ;
#141 = FACE_OUTER_BOUND ( 'NONE', #10, .T. ) ;
#142 =( NAMED_UNIT ( * ) SI_UNIT ( $, .STERADIAN. ) SOLID_ANGLE_UNIT ( ) );
#143 = CARTESIAN_POINT ( 'NONE',  ( 0.0000000000000000000, 0.0000000000000000000, 77.04063108247682100 ) ) ;
#144 = AXIS2_PLACEMENT_3D ( 'NONE', #143, #171, #170 ) ;
#145 = SPHERICAL_SURFACE ( 'NONE', #144, 77.19000000000001200 ) ;
#146 = COLOUR_RGB ( '',0.9568627450980391500, 0.9490196078431372100, 0.9607843137254902200 ) ;
#147 = FACE_OUTER_BOUND ( 'NONE', #3, .T. ) ;
#148 = MECHANICAL_DESIGN_GEOMETRIC_PRESENTATION_REPRESENTATION (  '', ( #185 ), #194 ) ;
#149 = PRESENTATION_LAYER_ASSIGNMENT (  '', '', ( #185 ) ) ;
#150 = DIRECTION ( 'NONE',  ( 1.000000000000000000, 0.0000000000000000000, 0.0000000000000000000 ) ) ;
#151 = DIRECTION ( 'NONE',  ( 0.0000000000000000000, 0.0000000000000000000, -1.000000000000000000 ) ) ;
#152 = COLOUR_RGB ( '',0.7960784313725489700, 0.8235294117647058400, 0.9372549019607843100 ) ;
#153 = AXIS2_PLACEMENT_3D ( 'NONE', #182, #180, #151 ) ;
#154 =( LENGTH_UNIT ( ) NAMED_UNIT ( * ) SI_UNIT ( .MILLI., .METRE. ) );
#155 = CIRCLE ( 'NONE', #153, 77.19000000000001200 ) ;
#156 =( NAMED_UNIT ( * ) PLANE_ANGLE_UNIT ( ) SI_UNIT ( $, .RADIAN. ) );
#157 = FILL_AREA_STYLE_COLOUR ( '', #152 ) ;
#158 = PRESENTATION_STYLE_ASSIGNMENT (( #160 ) ) ;
#159 = CARTESIAN_POINT ( 'NONE',  ( 0.0000000000000000000, 0.0000000000000000000, 6.867784352906140200 ) ) ;
#160 = SURFACE_STYLE_USAGE ( .BOTH. , #175 ) ;
#161 = UNCERTAINTY_MEASURE_WITH_UNIT (LENGTH_MEASURE( 1.000000000000000100E-005 ), #154, 'distance_accuracy_value', 'NONE');
#162 = UNCERTAINTY_MEASURE_WITH_UNIT (LENGTH_MEASURE( 1.000000000000000100E-005 ), #190, 'distance_accuracy_value', 'NONE');
#163 = PRESENTATION_LAYER_ASSIGNMENT (  '', '', ( #181 ) ) ;
#164 = MECHANICAL_DESIGN_GEOMETRIC_PRESENTATION_REPRESENTATION (  '', ( #181 ), #192 ) ;
#165 = SURFACE_STYLE_USAGE ( .BOTH. , #166 ) ;
#166 = SURFACE_SIDE_STYLE ('',( #167 ) ) ;
#167 = SURFACE_STYLE_FILL_AREA ( #168 ) ;
#168 = FILL_AREA_STYLE ('',( #169 ) ) ;
#169 = FILL_AREA_STYLE_COLOUR ( '', #146 ) ;
#170 = DIRECTION ( 'NONE',  ( 0.0000000000000000000, 1.000000000000000000, 0.0000000000000000000 ) ) ;
#171 = DIRECTION ( 'NONE',  ( -1.000000000000000000, 0.0000000000000000000, 0.0000000000000000000 ) ) ;
#172 = AXIS2_PLACEMENT_3D ( 'NONE', #159, #184, #150 ) ;
#173 = FILL_AREA_STYLE_COLOUR ( '', #178 ) ;
#174 = FACE_OUTER_BOUND ( 'NONE', #30, .T. ) ;
#175 = SURFACE_SIDE_STYLE ('',( #191 ) ) ;
#176 = SURFACE_STYLE_FILL_AREA ( #177 ) ;
#177 = FILL_AREA_STYLE ('',( #173 ) ) ;
#178 = COLOUR_RGB ( '',0.9568627450980391500, 0.9490196078431372100, 0.9607843137254902200 ) ;
#179 = FILL_AREA_STYLE ('',( #157 ) ) ;
#180 = DIRECTION ( 'NONE',  ( 1.000000000000000000, 0.0000000000000000000, 0.0000000000000000000 ) ) ;
#181 = STYLED_ITEM ( 'NONE', ( #158 ), #28 ) ;
#182 = CARTESIAN_POINT ( 'NONE',  ( 0.0000000000000000000, 0.0000000000000000000, 77.04063108247682100 ) ) ;
#183 =( NAMED_UNIT ( * ) PLANE_ANGLE_UNIT ( ) SI_UNIT ( $, .RADIAN. ) );
#184 = DIRECTION ( 'NONE',  ( -0.0000000000000000000, -0.0000000000000000000, 1.000000000000000000 ) ) ;
#185 = STYLED_ITEM ( 'NONE', ( #186 ), #29 ) ;
#186 = PRESENTATION_STYLE_ASSIGNMENT (( #187 ) ) ;
#187 = SURFACE_STYLE_USAGE ( .BOTH. , #188 ) ;
#188 = SURFACE_SIDE_STYLE ('',( #176 ) ) ;
#189 = CYLINDRICAL_SURFACE ( 'NONE', #172, 25.39999999999999900 ) ;
#190 =( LENGTH_UNIT ( ) NAMED_UNIT ( * ) SI_UNIT ( .MILLI., .METRE. ) );
#191 = SURFACE_STYLE_FILL_AREA ( #179 ) ;
#192 =( GEOMETRIC_REPRESENTATION_CONTEXT ( 3 ) GLOBAL_UNCERTAINTY_ASSIGNED_CONTEXT ( ( #162 ) ) GLOBAL_UNIT_ASSIGNED_CONTEXT ( ( #190, #183, #193 ) ) REPRESENTATION_CONTEXT ( 'NONE', 'WORKASPACE' ) );
#193 =( NAMED_UNIT ( * ) SI_UNIT ( $, .STERADIAN. ) SOLID_ANGLE_UNIT ( ) );
#194 =( GEOMETRIC_REPRESENTATION_CONTEXT ( 3 ) GLOBAL_UNCERTAINTY_ASSIGNED_CONTEXT ( ( #161 ) ) GLOBAL_UNIT_ASSIGNED_CONTEXT ( ( #154, #156, #142 ) ) REPRESENTATION_CONTEXT ( 'NONE', 'WORKASPACE' ) );
#195 =( GEOMETRIC_REPRESENTATION_CONTEXT ( 3 ) GLOBAL_UNCERTAINTY_ASSIGNED_CONTEXT ( ( #75 ) ) GLOBAL_UNIT_ASSIGNED_CONTEXT ( ( #76, #78, #79 ) ) REPRESENTATION_CONTEXT ( 'NONE', 'WORKASPACE' ) );
#196 = DIRECTION ( 'NONE',  ( 1.000000000000000000, 0.0000000000000000000, 0.0000000000000000000 ) ) ;
#197 = DIRECTION ( 'NONE',  ( -0.0000000000000000000, -0.0000000000000000000, 1.000000000000000000 ) ) ;
#198 = DIRECTION ( 'NONE',  ( -0.0000000000000000000, -0.0000000000000000000, 1.000000000000000000 ) ) ;
#199 =( LENGTH_UNIT ( ) NAMED_UNIT ( * ) SI_UNIT ( .MILLI., .METRE. ) );
#200 = DIRECTION ( 'NONE',  ( 1.000000000000000000, 0.0000000000000000000, 0.0000000000000000000 ) ) ;
#201 = AXIS2_PLACEMENT_3D ( 'NONE', #202, #216, #200 ) ;
#202 = CARTESIAN_POINT ( 'NONE',  ( 0.0000000000000000000, 0.0000000000000000000, 4.149368917523184500 ) ) ;
#203 = LINE ( 'NONE', #214, #213 ) ;
#204 = AXIS2_PLACEMENT_3D ( 'NONE', #222, #221, #220 ) ;
#205 = CIRCLE ( 'NONE', #204, 25.39999999999999900 ) ;
#206 = CARTESIAN_POINT ( 'NONE',  ( 25.39999999999999900, 0.0000000000000000000, 4.149368917523184500 ) ) ;
#207 = CARTESIAN_POINT ( 'NONE',  ( -25.39999999999999900, 3.110500138708838200E-015, 4.149368917523184500 ) ) ;
#208 = CARTESIAN_POINT ( 'NONE',  ( 0.0000000000000000000, 25.40000000000000600, 4.149368917523176500 ) ) ;
#209 = DIRECTION ( 'NONE',  ( -0.0000000000000000000, -0.0000000000000000000, 1.000000000000000000 ) ) ;
#210 = VECTOR ( 'NONE', #209, 1000.000000000000000 ) ;
#211 = CARTESIAN_POINT ( 'NONE',  ( 25.39999999999999900, 0.0000000000000000000, 6.867784352906140200 ) ) ;
#212 = LINE ( 'NONE', #211, #210 ) ;
#213 = VECTOR ( 'NONE', #198, 1000.000000000000000 ) ;
#214 = CARTESIAN_POINT ( 'NONE',  ( -25.39999999999999900, 3.110500138708838200E-015, 6.867784352906140200 ) ) ;
#215 = DIRECTION ( 'NONE',  ( 1.000000000000000000, 0.0000000000000000000, 0.0000000000000000000 ) ) ;
#216 = DIRECTION ( 'NONE',  ( -0.0000000000000000000, -0.0000000000000000000, 1.000000000000000000 ) ) ;
#217 = CARTESIAN_POINT ( 'NONE',  ( 0.0000000000000000000, 7.347880794884119700E-016, -4.149368917523184500 ) ) ;
#218 = AXIS2_PLACEMENT_3D ( 'NONE', #217, #219, #215 ) ;
#219 = DIRECTION ( 'NONE',  ( 0.0000000000000000000, -0.0000000000000000000, 1.000000000000000000 ) ) ;
#220 = DIRECTION ( 'NONE',  ( 1.000000000000000000, 0.0000000000000000000, 0.0000000000000000000 ) ) ;
#221 = DIRECTION ( 'NONE',  ( -0.0000000000000000000, -0.0000000000000000000, 1.000000000000000000 ) ) ;
#222 = CARTESIAN_POINT ( 'NONE',  ( 0.0000000000000000000, 0.0000000000000000000, 4.149368917523184500 ) ) ;
#223 = CIRCLE ( 'NONE', #201, 25.39999999999999900 ) ;
#224 = PLANE ( 'NONE',  #218 ) ;
#225 = CARTESIAN_POINT ( 'NONE',  ( 0.0000000000000000000, 0.0000000000000000000, 4.149368917523184500 ) ) ;
#226 = AXIS2_PLACEMENT_3D ( 'NONE', #225, #197, #196 ) ;
#227 = CIRCLE ( 'NONE', #226, 25.39999999999999900 ) ;
#228 = FILL_AREA_STYLE ('',( #247 ) ) ;
#229 = COLOUR_RGB ( '',0.7960784313725489700, 0.8235294117647058400, 0.9372549019607843100 ) ;
#230 = MECHANICAL_DESIGN_GEOMETRIC_PRESENTATION_REPRESENTATION (  '', ( #238 ), #249 ) ;
#231 = PRESENTATION_LAYER_ASSIGNMENT (  '', '', ( #238 ) ) ;
#232 = ADVANCED_BREP_SHAPE_REPRESENTATION ( '4785-E0W', ( #28, #245 ), #241 ) ;
#233 = DIRECTION ( 'NONE',  ( 1.000000000000000000, 0.0000000000000000000, 0.0000000000000000000 ) ) ;
#234 =( NAMED_UNIT ( * ) SI_UNIT ( $, .STERADIAN. ) SOLID_ANGLE_UNIT ( ) );
#235 =( NAMED_UNIT ( * ) PLANE_ANGLE_UNIT ( ) SI_UNIT ( $, .RADIAN. ) );
#236 = UNCERTAINTY_MEASURE_WITH_UNIT (LENGTH_MEASURE( 1.000000000000000100E-005 ), #199, 'distance_accuracy_value', 'NONE');
#237 = UNCERTAINTY_MEASURE_WITH_UNIT (LENGTH_MEASURE( 1.000000000000000100E-005 ), #240, 'distance_accuracy_value', 'NONE');
#238 = STYLED_ITEM ( 'NONE', ( #239 ), #232 ) ;
#239 = PRESENTATION_STYLE_ASSIGNMENT (( #242 ) ) ;
#240 =( LENGTH_UNIT ( ) NAMED_UNIT ( * ) SI_UNIT ( .MILLI., .METRE. ) );
#241 =( GEOMETRIC_REPRESENTATION_CONTEXT ( 3 ) GLOBAL_UNCERTAINTY_ASSIGNED_CONTEXT ( ( #236 ) ) GLOBAL_UNIT_ASSIGNED_CONTEXT ( ( #199, #35, #50 ) ) REPRESENTATION_CONTEXT ( 'NONE', 'WORKASPACE' ) );
#242 = SURFACE_STYLE_USAGE ( .BOTH. , #243 ) ;
#243 = SURFACE_SIDE_STYLE ('',( #244 ) ) ;
#244 = SURFACE_STYLE_FILL_AREA ( #228 ) ;
#245 = AXIS2_PLACEMENT_3D ( 'NONE', #246, #248, #233 ) ;
#246 = CARTESIAN_POINT ( 'NONE',  ( 0.0000000000000000000, 0.0000000000000000000, 0.0000000000000000000 ) ) ;
#247 = FILL_AREA_STYLE_COLOUR ( '', #229 ) ;
#248 = DIRECTION ( 'NONE',  ( 0.0000000000000000000, 0.0000000000000000000, 1.000000000000000000 ) ) ;
#249 =( GEOMETRIC_REPRESENTATION_CONTEXT ( 3 ) GLOBAL_UNCERTAINTY_ASSIGNED_CONTEXT ( ( #237 ) ) GLOBAL_UNIT_ASSIGNED_CONTEXT ( ( #240, #235, #234 ) ) REPRESENTATION_CONTEXT ( 'NONE', 'WORKASPACE' ) );
#250 = PRODUCT_RELATED_PRODUCT_CATEGORY ( 'part', '', ( #255 ) ) ;
#251 = PRODUCT_DEFINITION_FORMATION_WITH_SPECIFIED_SOURCE ( 'ANY', '', #255, .NOT_KNOWN. ) ;
#252 = PRODUCT_DEFINITION ( 'UNKNOWN', '', #251, #258 ) ;
#253 = PRODUCT_DEFINITION_SHAPE ( 'NONE', 'NONE',  #252 ) ;
#254 = SHAPE_DEFINITION_REPRESENTATION ( #253, #232 ) ;
#255 = PRODUCT ( '4785-E0W', '4785-E0W', '', ( #256 ) ) ;
#256 = PRODUCT_CONTEXT ( 'NONE', #261, 'mechanical' ) ;
#257 = APPLICATION_PROTOCOL_DEFINITION ( 'draft international standard', 'automotive_design', 1998, #261 ) ;
#258 = PRODUCT_DEFINITION_CONTEXT ( 'detailed design', #260, 'design' ) ;
#259 = APPLICATION_PROTOCOL_DEFINITION ( 'draft international standard', 'automotive_design', 1998, #260 ) ;
#260 = APPLICATION_CONTEXT ( 'automotive_design' ) ;
#261 = APPLICATION_CONTEXT ( 'automotive_design' ) ;
ENDSEC;
END-ISO-10303-21;
