ISO-10303-21;
HEADER;
FILE_DESCRIPTION (( 'STEP AP203' ),
    '1' );
FILE_NAME ('Web Model 39393_39421.step',
    '2018-10-05T20:47:34',
    ( '' ),
    ( '' ),
    'SwSTEP 2.0',
    'SolidWorks 2016',
    '' );
FILE_SCHEMA (( 'CONFIG_CONTROL_DESIGN' ));
ENDSEC;

DATA;
#1 = CIRCLE ( 'NONE', #103, 12.50000000000000000 ) ;
#2 = ADVANCED_FACE ( 'NONE', ( #8 ), #105, .T. ) ;
#3 = CC_DESIGN_PERSON_AND_ORGANIZATION_ASSIGNMENT ( #16, #20, ( #53 ) ) ;
#4 = EDGE_CURVE ( 'NONE', #47, #24, #120, .T. ) ;
#5 = APPROVAL_PERSON_ORGANIZATION ( #38, #131, #83 ) ;
#6 = PLANE ( 'NONE',  #88 ) ;
#7 = LOCAL_TIME ( 16, 47, 34.00000000000000000, #62 ) ;
#8 = FACE_OUTER_BOUND ( 'NONE', #98, .T. ) ;
#9 =( NAMED_UNIT ( * ) SI_UNIT ( $, .STERADIAN. ) SOLID_ANGLE_UNIT ( ) );
#10 = APPROVAL_PERSON_ORGANIZATION ( #107, #172, #126 ) ;
#11 = APPROVAL ( #33, 'UNSPECIFIED' ) ;
#12 = LOCAL_TIME ( 16, 47, 34.00000000000000000, #154 ) ;
#13 = FACE_OUTER_BOUND ( 'NONE', #23, .T. ) ;
#14 = ADVANCED_BREP_SHAPE_REPRESENTATION ( 'Web Model 39393_39421', ( #87, #164 ), #147 ) ;
#15 = CARTESIAN_POINT ( 'NONE',  ( 0.0000000000000000000, 0.0000000000000000000, 2.500000000000000000 ) ) ;
#16 = PERSON_AND_ORGANIZATION ( #37, #36 ) ;
#17 = DIRECTION ( 'NONE',  ( -1.000000000000000000, 0.0000000000000000000, 0.0000000000000000000 ) ) ;
#18 = DIRECTION ( 'NONE',  ( -1.000000000000000000, 0.0000000000000000000, 0.0000000000000000000 ) ) ;
#19 = SHAPE_DEFINITION_REPRESENTATION ( #162, #14 ) ;
#20 = PERSON_AND_ORGANIZATION_ROLE ( 'classification_officer' ) ;
#21 = UNCERTAINTY_MEASURE_WITH_UNIT (LENGTH_MEASURE( 1.000000000000000100E-005 ), #96, 'distance_accuracy_value', 'NONE');
#22 = APPLICATION_PROTOCOL_DEFINITION ( 'international standard', 'config_control_design', 1994, #163 ) ;
#23 = EDGE_LOOP ( 'NONE', ( #59, #134 ) ) ;
#24 = VERTEX_POINT ( 'NONE', #156 ) ;
#25 = DATE_AND_TIME ( #40, #110 ) ;
#26 = CIRCLE ( 'NONE', #101, 12.50000000000000000 ) ;
#27 = CC_DESIGN_APPROVAL ( #172, ( #117 ) ) ;
#28 = DIRECTION ( 'NONE',  ( 0.0000000000000000000, 0.0000000000000000000, 1.000000000000000000 ) ) ;
#29 = CARTESIAN_POINT ( 'NONE',  ( 0.0000000000000000000, 0.0000000000000000000, 2.500000000000000000 ) ) ;
#30 = EDGE_CURVE ( 'NONE', #165, #47, #127, .T. ) ;
#31 = CARTESIAN_POINT ( 'NONE',  ( 0.0000000000000000000, 0.0000000000000000000, -2.500000000000000000 ) ) ;
#32 = ORIENTED_EDGE ( 'NONE', *, *, #42, .F. ) ;
#33 = APPROVAL_STATUS ( 'not_yet_approved' ) ;
#34 = SECURITY_CLASSIFICATION_LEVEL ( 'unclassified' ) ;
#35 = PERSON_AND_ORGANIZATION_ROLE ( 'design_supplier' ) ;
#36 = ORGANIZATION ( 'UNSPECIFIED', 'UNSPECIFIED', '' ) ;
#37 = PERSON ( 'UNSPECIFIED', 'UNSPECIFIED', 'UNSPECIFIED', ('UNSPECIFIED'), ('UNSPECIFIED'), ('UNSPECIFIED') ) ;
#38 = PERSON_AND_ORGANIZATION ( #37, #36 ) ;
#39 = CC_DESIGN_PERSON_AND_ORGANIZATION_ASSIGNMENT ( #100, #112, ( #117 ) ) ;
#40 = CALENDAR_DATE ( 2018, 5, 10 ) ;
#41 = PERSON_AND_ORGANIZATION ( #37, #36 ) ;
#42 = EDGE_CURVE ( 'NONE', #47, #165, #1, .T. ) ;
#43 = DIRECTION ( 'NONE',  ( 1.000000000000000000, 0.0000000000000000000, 0.0000000000000000000 ) ) ;
#44 = CARTESIAN_POINT ( 'NONE',  ( 0.0000000000000000000, 0.0000000000000000000, -2.500000000000000000 ) ) ;
#45 = DIRECTION ( 'NONE',  ( 1.000000000000000000, 0.0000000000000000000, 0.0000000000000000000 ) ) ;
#46 = DATE_AND_TIME ( #111, #7 ) ;
#47 = VERTEX_POINT ( 'NONE', #125 ) ;
#48 = CC_DESIGN_PERSON_AND_ORGANIZATION_ASSIGNMENT ( #64, #35, ( #117 ) ) ;
#49 = CALENDAR_DATE ( 2018, 5, 10 ) ;
#50 = APPROVAL_ROLE ( '' ) ;
#51 = DIRECTION ( 'NONE',  ( 0.0000000000000000000, 0.0000000000000000000, 1.000000000000000000 ) ) ;
#52 = APPROVAL_DATE_TIME ( #85, #131 ) ;
#53 = SECURITY_CLASSIFICATION ( '', '', #34 ) ;
#54 = DESIGN_CONTEXT ( 'detailed design', #81, 'design' ) ;
#55 = DIRECTION ( 'NONE',  ( 0.0000000000000000000, 0.0000000000000000000, 1.000000000000000000 ) ) ;
#56 = DATE_AND_TIME ( #157, #170 ) ;
#57 = ORIENTED_EDGE ( 'NONE', *, *, #4, .F. ) ;
#58 = PERSON_AND_ORGANIZATION_ROLE ( 'design_owner' ) ;
#59 = ORIENTED_EDGE ( 'NONE', *, *, #42, .T. ) ;
#60 = DIRECTION ( 'NONE',  ( 0.0000000000000000000, 0.0000000000000000000, 1.000000000000000000 ) ) ;
#61 = DATE_TIME_ROLE ( 'classification_date' ) ;
#62 = COORDINATED_UNIVERSAL_TIME_OFFSET ( 5, 0, .BEHIND. ) ;
#63 = AXIS2_PLACEMENT_3D ( 'NONE', #15, #28, #139 ) ;
#64 = PERSON_AND_ORGANIZATION ( #37, #36 ) ;
#65 = ORIENTED_EDGE ( 'NONE', *, *, #76, .T. ) ;
#66 = ORIENTED_EDGE ( 'NONE', *, *, #4, .T. ) ;
#67 = LINE ( 'NONE', #143, #141 ) ;
#68 = PLANE ( 'NONE',  #63 ) ;
#69 = DIRECTION ( 'NONE',  ( -0.0000000000000000000, -0.0000000000000000000, -1.000000000000000000 ) ) ;
#70 = APPROVAL_STATUS ( 'not_yet_approved' ) ;
#71 = MECHANICAL_CONTEXT ( 'NONE', #163, 'mechanical' ) ;
#72 = DATE_TIME_ROLE ( 'creation_date' ) ;
#73 = CARTESIAN_POINT ( 'NONE',  ( 0.0000000000000000000, 0.0000000000000000000, -2.500000000000000000 ) ) ;
#74 = APPROVAL_DATE_TIME ( #56, #11 ) ;
#75 = EDGE_LOOP ( 'NONE', ( #171, #65, #104, #57 ) ) ;
#76 = EDGE_CURVE ( 'NONE', #165, #86, #67, .T. ) ;
#77 = CIRCLE ( 'NONE', #135, 12.50000000000000000 ) ;
#78 = EDGE_CURVE ( 'NONE', #24, #86, #26, .T. ) ;
#79 = DIRECTION ( 'NONE',  ( 0.0000000000000000000, 0.0000000000000000000, 1.000000000000000000 ) ) ;
#80 = COORDINATED_UNIVERSAL_TIME_OFFSET ( 5, 0, .BEHIND. ) ;
#81 = APPLICATION_CONTEXT ( 'configuration controlled 3d designs of mechanical parts and assemblies' ) ;
#82 = DIRECTION ( 'NONE',  ( 1.000000000000000000, 0.0000000000000000000, 0.0000000000000000000 ) ) ;
#83 = APPROVAL_ROLE ( '' ) ;
#84 =( NAMED_UNIT ( * ) PLANE_ANGLE_UNIT ( ) SI_UNIT ( $, .RADIAN. ) );
#85 = DATE_AND_TIME ( #114, #12 ) ;
#86 = VERTEX_POINT ( 'NONE', #158 ) ;
#87 = MANIFOLD_SOLID_BREP ( 'Boss-Extrude1', #173 ) ;
#88 = AXIS2_PLACEMENT_3D ( 'NONE', #31, #55, #109 ) ;
#89 = AXIS2_PLACEMENT_3D ( 'NONE', #108, #94, #18 ) ;
#90 = CC_DESIGN_SECURITY_CLASSIFICATION ( #53, ( #117 ) ) ;
#91 = ORIENTED_EDGE ( 'NONE', *, *, #78, .T. ) ;
#92 = CARTESIAN_POINT ( 'NONE',  ( 12.50000000000000000, 1.530808498934191500E-015, 2.500000000000000000 ) ) ;
#93 = DIRECTION ( 'NONE',  ( -0.0000000000000000000, -0.0000000000000000000, -1.000000000000000000 ) ) ;
#94 = DIRECTION ( 'NONE',  ( -0.0000000000000000000, -0.0000000000000000000, -1.000000000000000000 ) ) ;
#95 = CARTESIAN_POINT ( 'NONE',  ( 0.0000000000000000000, 0.0000000000000000000, 2.500000000000000000 ) ) ;
#96 =( LENGTH_UNIT ( ) NAMED_UNIT ( * ) SI_UNIT ( .MILLI., .METRE. ) );
#97 = AXIS2_PLACEMENT_3D ( 'NONE', #168, #69, #17 ) ;
#98 = EDGE_LOOP ( 'NONE', ( #146, #32, #66, #91 ) ) ;
#99 = CARTESIAN_POINT ( 'NONE',  ( 0.0000000000000000000, 0.0000000000000000000, 0.0000000000000000000 ) ) ;
#100 = PERSON_AND_ORGANIZATION ( #37, #36 ) ;
#101 = AXIS2_PLACEMENT_3D ( 'NONE', #44, #79, #45 ) ;
#102 = ORIENTED_EDGE ( 'NONE', *, *, #78, .F. ) ;
#103 = AXIS2_PLACEMENT_3D ( 'NONE', #29, #123, #159 ) ;
#104 = ORIENTED_EDGE ( 'NONE', *, *, #166, .T. ) ;
#105 = CYLINDRICAL_SURFACE ( 'NONE', #89, 12.50000000000000000 ) ;
#106 = DIRECTION ( 'NONE',  ( -0.0000000000000000000, -0.0000000000000000000, -1.000000000000000000 ) ) ;
#107 = PERSON_AND_ORGANIZATION ( #37, #36 ) ;
#108 = CARTESIAN_POINT ( 'NONE',  ( 0.0000000000000000000, 0.0000000000000000000, 2.500000000000000000 ) ) ;
#109 = DIRECTION ( 'NONE',  ( 1.000000000000000000, 0.0000000000000000000, -0.0000000000000000000 ) ) ;
#110 = LOCAL_TIME ( 16, 47, 34.00000000000000000, #122 ) ;
#111 = CALENDAR_DATE ( 2018, 5, 10 ) ;
#112 = PERSON_AND_ORGANIZATION_ROLE ( 'creator' ) ;
#113 = ADVANCED_FACE ( 'NONE', ( #149 ), #130, .T. ) ;
#114 = CALENDAR_DATE ( 2018, 5, 10 ) ;
#115 = EDGE_LOOP ( 'NONE', ( #102, #138 ) ) ;
#116 = ADVANCED_FACE ( 'NONE', ( #137 ), #6, .F. ) ;
#117 = PRODUCT_DEFINITION_FORMATION_WITH_SPECIFIED_SOURCE ( 'ANY', '', #133, .NOT_KNOWN. ) ;
#118 = CC_DESIGN_APPROVAL ( #11, ( #53 ) ) ;
#119 = APPROVAL_DATE_TIME ( #25, #172 ) ;
#120 = LINE ( 'NONE', #169, #167 ) ;
#121 = AXIS2_PLACEMENT_3D ( 'NONE', #95, #124, #43 ) ;
#122 = COORDINATED_UNIVERSAL_TIME_OFFSET ( 5, 0, .BEHIND. ) ;
#123 = DIRECTION ( 'NONE',  ( 0.0000000000000000000, 0.0000000000000000000, 1.000000000000000000 ) ) ;
#124 = DIRECTION ( 'NONE',  ( 0.0000000000000000000, 0.0000000000000000000, 1.000000000000000000 ) ) ;
#125 = CARTESIAN_POINT ( 'NONE',  ( -12.50000000000000000, 0.0000000000000000000, 2.500000000000000000 ) ) ;
#126 = APPROVAL_ROLE ( '' ) ;
#127 = CIRCLE ( 'NONE', #121, 12.50000000000000000 ) ;
#128 = DIRECTION ( 'NONE',  ( 1.000000000000000000, 0.0000000000000000000, 0.0000000000000000000 ) ) ;
#129 = CC_DESIGN_PERSON_AND_ORGANIZATION_ASSIGNMENT ( #41, #58, ( #133 ) ) ;
#130 = CYLINDRICAL_SURFACE ( 'NONE', #97, 12.50000000000000000 ) ;
#131 = APPROVAL ( #160, 'UNSPECIFIED' ) ;
#132 = PRODUCT_RELATED_PRODUCT_CATEGORY ( 'detail', '', ( #133 ) ) ;
#133 = PRODUCT ( 'Web Model 39393_39421', 'Web Model 39393_39421', '', ( #71 ) ) ;
#134 = ORIENTED_EDGE ( 'NONE', *, *, #30, .T. ) ;
#135 = AXIS2_PLACEMENT_3D ( 'NONE', #73, #51, #82 ) ;
#136 = DATE_AND_TIME ( #49, #140 ) ;
#137 = FACE_OUTER_BOUND ( 'NONE', #115, .T. ) ;
#138 = ORIENTED_EDGE ( 'NONE', *, *, #166, .F. ) ;
#139 = DIRECTION ( 'NONE',  ( 1.000000000000000000, 0.0000000000000000000, -0.0000000000000000000 ) ) ;
#140 = LOCAL_TIME ( 16, 47, 34.00000000000000000, #80 ) ;
#141 = VECTOR ( 'NONE', #106, 1000.000000000000000 ) ;
#142 = CC_DESIGN_APPROVAL ( #131, ( #174 ) ) ;
#143 = CARTESIAN_POINT ( 'NONE',  ( 12.50000000000000000, 1.530808498934191500E-015, 2.500000000000000000 ) ) ;
#144 = CC_DESIGN_PERSON_AND_ORGANIZATION_ASSIGNMENT ( #175, #145, ( #174 ) ) ;
#145 = PERSON_AND_ORGANIZATION_ROLE ( 'creator' ) ;
#146 = ORIENTED_EDGE ( 'NONE', *, *, #76, .F. ) ;
#147 =( GEOMETRIC_REPRESENTATION_CONTEXT ( 3 ) GLOBAL_UNCERTAINTY_ASSIGNED_CONTEXT ( ( #21 ) ) GLOBAL_UNIT_ASSIGNED_CONTEXT ( ( #96, #84, #9 ) ) REPRESENTATION_CONTEXT ( 'NONE', 'WORKASPACE' ) );
#148 = APPLICATION_PROTOCOL_DEFINITION ( 'international standard', 'config_control_design', 1994, #81 ) ;
#149 = FACE_OUTER_BOUND ( 'NONE', #75, .T. ) ;
#150 = ADVANCED_FACE ( 'NONE', ( #13 ), #68, .T. ) ;
#151 = CC_DESIGN_DATE_AND_TIME_ASSIGNMENT ( #136, #61, ( #53 ) ) ;
#152 = COORDINATED_UNIVERSAL_TIME_OFFSET ( 5, 0, .BEHIND. ) ;
#153 = APPROVAL_PERSON_ORGANIZATION ( #161, #11, #50 ) ;
#154 = COORDINATED_UNIVERSAL_TIME_OFFSET ( 5, 0, .BEHIND. ) ;
#155 = CC_DESIGN_DATE_AND_TIME_ASSIGNMENT ( #46, #72, ( #174 ) ) ;
#156 = CARTESIAN_POINT ( 'NONE',  ( -12.50000000000000000, 0.0000000000000000000, -2.500000000000000000 ) ) ;
#157 = CALENDAR_DATE ( 2018, 5, 10 ) ;
#158 = CARTESIAN_POINT ( 'NONE',  ( 12.50000000000000000, 1.530808498934191500E-015, -2.500000000000000000 ) ) ;
#159 = DIRECTION ( 'NONE',  ( 1.000000000000000000, 0.0000000000000000000, 0.0000000000000000000 ) ) ;
#160 = APPROVAL_STATUS ( 'not_yet_approved' ) ;
#161 = PERSON_AND_ORGANIZATION ( #37, #36 ) ;
#162 = PRODUCT_DEFINITION_SHAPE ( 'NONE', 'NONE',  #174 ) ;
#163 = APPLICATION_CONTEXT ( 'configuration controlled 3d designs of mechanical parts and assemblies' ) ;
#164 = AXIS2_PLACEMENT_3D ( 'NONE', #99, #60, #128 ) ;
#165 = VERTEX_POINT ( 'NONE', #92 ) ;
#166 = EDGE_CURVE ( 'NONE', #86, #24, #77, .T. ) ;
#167 = VECTOR ( 'NONE', #93, 1000.000000000000000 ) ;
#168 = CARTESIAN_POINT ( 'NONE',  ( 0.0000000000000000000, 0.0000000000000000000, 2.500000000000000000 ) ) ;
#169 = CARTESIAN_POINT ( 'NONE',  ( -12.50000000000000000, 0.0000000000000000000, 2.500000000000000000 ) ) ;
#170 = LOCAL_TIME ( 16, 47, 34.00000000000000000, #152 ) ;
#171 = ORIENTED_EDGE ( 'NONE', *, *, #30, .F. ) ;
#172 = APPROVAL ( #70, 'UNSPECIFIED' ) ;
#173 = CLOSED_SHELL ( 'NONE', ( #113, #2, #150, #116 ) ) ;
#174 = PRODUCT_DEFINITION ( 'UNKNOWN', '', #117, #54 ) ;
#175 = PERSON_AND_ORGANIZATION ( #37, #36 ) ;
ENDSEC;
END-ISO-10303-21;
