ISO-10303-21;
HEADER;
FILE_DESCRIPTION (( 'STEP AP203' ),
    '1' );
FILE_NAME ('Web Model 36993_13296.step',
    '2020-11-03T22:17:10',
    ( '' ),
    ( '' ),
    'SwSTEP 2.0',
    'SolidWorks 2018',
    '' );
FILE_SCHEMA (( 'CONFIG_CONTROL_DESIGN' ));
ENDSEC;

DATA;
#1 = CALENDAR_DATE ( 2020, 3, 11 ) ;
#2 = LINE ( 'NONE', #49, #43 ) ;
#3 = PERSON_AND_ORGANIZATION ( #18, #103 ) ;
#4 = AXIS2_PLACEMENT_3D ( 'NONE', #113, #37, #138 ) ;
#5 = AXIS2_PLACEMENT_3D ( 'NONE', #15, #121, #108 ) ;
#6 = PERSON_AND_ORGANIZATION ( #18, #103 ) ;
#7 = VECTOR ( 'NONE', #12, 1000.000000000000000 ) ;
#8 = CARTESIAN_POINT ( 'NONE',  ( -12.50000000000000000, 0.0000000000000000000, -1.500000000000000000 ) ) ;
#9 = CC_DESIGN_PERSON_AND_ORGANIZATION_ASSIGNMENT ( #3, #86, ( #123 ) ) ;
#10 = CARTESIAN_POINT ( 'NONE',  ( 12.50000000000000000, 1.530808498934191521E-15, 1.500000000000000000 ) ) ;
#11 = CALENDAR_DATE ( 2020, 3, 11 ) ;
#12 = DIRECTION ( 'NONE',  ( -0.0000000000000000000, -0.0000000000000000000, -1.000000000000000000 ) ) ;
#13 = DESIGN_CONTEXT ( 'detailed design', #73, 'design' ) ;
#14 = CIRCLE ( 'NONE', #167, 12.50000000000000000 ) ;
#15 = CARTESIAN_POINT ( 'NONE',  ( 0.0000000000000000000, 0.0000000000000000000, 1.500000000000000000 ) ) ;
#16 = CC_DESIGN_PERSON_AND_ORGANIZATION_ASSIGNMENT ( #142, #132, ( #130 ) ) ;
#17 = ORIENTED_EDGE ( 'NONE', *, *, #164, .T. ) ;
#18 = PERSON ( 'UNSPECIFIED', 'UNSPECIFIED', 'UNSPECIFIED', ('UNSPECIFIED'), ('UNSPECIFIED'), ('UNSPECIFIED') ) ;
#19 = DIRECTION ( 'NONE',  ( 0.0000000000000000000, 0.0000000000000000000, 1.000000000000000000 ) ) ;
#20 = APPROVAL_ROLE ( '' ) ;
#21 = MECHANICAL_CONTEXT ( 'NONE', #174, 'mechanical' ) ;
#22 = LOCAL_TIME ( 17, 17, 10.00000000000000000, #82 ) ;
#23 = DIRECTION ( 'NONE',  ( 0.0000000000000000000, 0.0000000000000000000, 1.000000000000000000 ) ) ;
#24 = CC_DESIGN_APPROVAL ( #104, ( #118 ) ) ;
#25 = APPROVAL_PERSON_ORGANIZATION ( #65, #104, #30 ) ;
#26 = CARTESIAN_POINT ( 'NONE',  ( 0.0000000000000000000, 0.0000000000000000000, 0.0000000000000000000 ) ) ;
#27 = COORDINATED_UNIVERSAL_TIME_OFFSET ( 5, 0, .BEHIND. ) ;
#28 = DIRECTION ( 'NONE',  ( 0.0000000000000000000, 0.0000000000000000000, 1.000000000000000000 ) ) ;
#29 = COORDINATED_UNIVERSAL_TIME_OFFSET ( 5, 0, .BEHIND. ) ;
#30 = APPROVAL_ROLE ( '' ) ;
#31 = PLANE ( 'NONE',  #74 ) ;
#32 = APPLICATION_PROTOCOL_DEFINITION ( 'international standard', 'config_control_design', 1994, #73 ) ;
#33 = CARTESIAN_POINT ( 'NONE',  ( 12.50000000000000000, 1.530808498934191521E-15, -1.500000000000000000 ) ) ;
#34 = LINE ( 'NONE', #10, #7 ) ;
#35 = APPROVAL_DATE_TIME ( #67, #117 ) ;
#36 = APPROVAL_PERSON_ORGANIZATION ( #6, #55, #20 ) ;
#37 = DIRECTION ( 'NONE',  ( 0.0000000000000000000, 0.0000000000000000000, 1.000000000000000000 ) ) ;
#38 = CC_DESIGN_APPROVAL ( #55, ( #130 ) ) ;
#39 = ORIENTED_EDGE ( 'NONE', *, *, #164, .F. ) ;
#40 = ADVANCED_FACE ( 'NONE', ( #58 ), #31, .T. ) ;
#41 = COORDINATED_UNIVERSAL_TIME_OFFSET ( 5, 0, .BEHIND. ) ;
#42 = DIRECTION ( 'NONE',  ( -1.000000000000000000, 0.0000000000000000000, 0.0000000000000000000 ) ) ;
#43 = VECTOR ( 'NONE', #75, 1000.000000000000000 ) ;
#44 = AXIS2_PLACEMENT_3D ( 'NONE', #26, #28, #161 ) ;
#45 = APPROVAL_PERSON_ORGANIZATION ( #159, #117, #149 ) ;
#46 = SHAPE_DEFINITION_REPRESENTATION ( #47, #153 ) ;
#47 = PRODUCT_DEFINITION_SHAPE ( 'NONE', 'NONE',  #130 ) ;
#48 = APPROVAL_STATUS ( 'not_yet_approved' ) ;
#49 = CARTESIAN_POINT ( 'NONE',  ( -12.50000000000000000, 0.0000000000000000000, 1.500000000000000000 ) ) ;
#50 = VERTEX_POINT ( 'NONE', #131 ) ;
#51 = SECURITY_CLASSIFICATION_LEVEL ( 'unclassified' ) ;
#52 = DIRECTION ( 'NONE',  ( -0.0000000000000000000, -0.0000000000000000000, -1.000000000000000000 ) ) ;
#53 = COORDINATED_UNIVERSAL_TIME_OFFSET ( 5, 0, .BEHIND. ) ;
#54 = VERTEX_POINT ( 'NONE', #8 ) ;
#55 = APPROVAL ( #163, 'UNSPECIFIED' ) ;
#56 = ORIENTED_EDGE ( 'NONE', *, *, #109, .T. ) ;
#57 = MANIFOLD_SOLID_BREP ( 'Boss-Extrude1', #129 ) ;
#58 = FACE_OUTER_BOUND ( 'NONE', #143, .T. ) ;
#59 = ORIENTED_EDGE ( 'NONE', *, *, #87, .T. ) ;
#60 = CARTESIAN_POINT ( 'NONE',  ( 0.0000000000000000000, 0.0000000000000000000, -1.500000000000000000 ) ) ;
#61 = CARTESIAN_POINT ( 'NONE',  ( 0.0000000000000000000, 0.0000000000000000000, 1.500000000000000000 ) ) ;
#62 = DIRECTION ( 'NONE',  ( 0.0000000000000000000, 0.0000000000000000000, 1.000000000000000000 ) ) ;
#63 = CYLINDRICAL_SURFACE ( 'NONE', #5, 12.50000000000000000 ) ;
#64 = SECURITY_CLASSIFICATION ( '', '', #51 ) ;
#65 = PERSON_AND_ORGANIZATION ( #18, #103 ) ;
#66 = ORIENTED_EDGE ( 'NONE', *, *, #79, .F. ) ;
#67 = DATE_AND_TIME ( #71, #105 ) ;
#68 = LOCAL_TIME ( 17, 17, 10.00000000000000000, #29 ) ;
#69 = PERSON_AND_ORGANIZATION ( #18, #103 ) ;
#70 = ORIENTED_EDGE ( 'NONE', *, *, #148, .T. ) ;
#71 = CALENDAR_DATE ( 2020, 3, 11 ) ;
#72 = APPROVAL_DATE_TIME ( #106, #55 ) ;
#73 = APPLICATION_CONTEXT ( 'configuration controlled 3d designs of mechanical parts and assemblies' ) ;
#74 = AXIS2_PLACEMENT_3D ( 'NONE', #128, #19, #160 ) ;
#75 = DIRECTION ( 'NONE',  ( -0.0000000000000000000, -0.0000000000000000000, -1.000000000000000000 ) ) ;
#76 = PERSON_AND_ORGANIZATION ( #18, #103 ) ;
#77 = PERSON_AND_ORGANIZATION_ROLE ( 'design_supplier' ) ;
#78 = VERTEX_POINT ( 'NONE', #162 ) ;
#79 = EDGE_CURVE ( 'NONE', #78, #50, #139, .T. ) ;
#80 = CIRCLE ( 'NONE', #95, 12.50000000000000000 ) ;
#81 = ORIENTED_EDGE ( 'NONE', *, *, #148, .F. ) ;
#82 = COORDINATED_UNIVERSAL_TIME_OFFSET ( 5, 0, .BEHIND. ) ;
#83 = CARTESIAN_POINT ( 'NONE',  ( 0.0000000000000000000, 0.0000000000000000000, 1.500000000000000000 ) ) ;
#84 = APPROVAL_STATUS ( 'not_yet_approved' ) ;
#85 = DIRECTION ( 'NONE',  ( 1.000000000000000000, 0.0000000000000000000, 0.0000000000000000000 ) ) ;
#86 = PERSON_AND_ORGANIZATION_ROLE ( 'design_owner' ) ;
#87 = EDGE_CURVE ( 'NONE', #78, #54, #2, .T. ) ;
#88 = ORIENTED_EDGE ( 'NONE', *, *, #87, .F. ) ;
#89 = ORIENTED_EDGE ( 'NONE', *, *, #137, .T. ) ;
#90 = CC_DESIGN_DATE_AND_TIME_ASSIGNMENT ( #97, #171, ( #130 ) ) ;
#91 = EDGE_LOOP ( 'NONE', ( #39, #168 ) ) ;
#92 = DIRECTION ( 'NONE',  ( 1.000000000000000000, 0.0000000000000000000, 0.0000000000000000000 ) ) ;
#93 = AXIS2_PLACEMENT_3D ( 'NONE', #150, #101, #100 ) ;
#94 = CIRCLE ( 'NONE', #93, 12.50000000000000000 ) ;
#95 = AXIS2_PLACEMENT_3D ( 'NONE', #133, #23, #135 ) ;
#96 = CALENDAR_DATE ( 2020, 3, 11 ) ;
#97 = DATE_AND_TIME ( #1, #68 ) ;
#98 = PERSON_AND_ORGANIZATION_ROLE ( 'creator' ) ;
#99 = AXIS2_PLACEMENT_3D ( 'NONE', #83, #62, #85 ) ;
#100 = DIRECTION ( 'NONE',  ( 1.000000000000000000, 0.0000000000000000000, 0.0000000000000000000 ) ) ;
#101 = DIRECTION ( 'NONE',  ( 0.0000000000000000000, 0.0000000000000000000, 1.000000000000000000 ) ) ;
#102 = ORIENTED_EDGE ( 'NONE', *, *, #79, .T. ) ;
#103 = ORGANIZATION ( 'UNSPECIFIED', 'UNSPECIFIED', '' ) ;
#104 = APPROVAL ( #84, 'UNSPECIFIED' ) ;
#105 = LOCAL_TIME ( 17, 17, 10.00000000000000000, #27 ) ;
#106 = DATE_AND_TIME ( #146, #152 ) ;
#107 =( GEOMETRIC_REPRESENTATION_CONTEXT ( 3 ) GLOBAL_UNCERTAINTY_ASSIGNED_CONTEXT ( ( #144 ) ) GLOBAL_UNIT_ASSIGNED_CONTEXT ( ( #125, #126, #147 ) ) REPRESENTATION_CONTEXT ( 'NONE', 'WORKASPACE' ) );
#108 = DIRECTION ( 'NONE',  ( -1.000000000000000000, 0.0000000000000000000, 0.0000000000000000000 ) ) ;
#109 = EDGE_CURVE ( 'NONE', #119, #54, #94, .T. ) ;
#110 = PERSON_AND_ORGANIZATION_ROLE ( 'classification_officer' ) ;
#111 = PRODUCT_RELATED_PRODUCT_CATEGORY ( 'detail', '', ( #123 ) ) ;
#112 = APPROVAL_DATE_TIME ( #157, #104 ) ;
#113 = CARTESIAN_POINT ( 'NONE',  ( 0.0000000000000000000, 0.0000000000000000000, -1.500000000000000000 ) ) ;
#114 = DATE_TIME_ROLE ( 'classification_date' ) ;
#115 = CC_DESIGN_SECURITY_CLASSIFICATION ( #64, ( #118 ) ) ;
#116 = ORIENTED_EDGE ( 'NONE', *, *, #137, .F. ) ;
#117 = APPROVAL ( #48, 'UNSPECIFIED' ) ;
#118 = PRODUCT_DEFINITION_FORMATION_WITH_SPECIFIED_SOURCE ( 'ANY', '', #123, .NOT_KNOWN. ) ;
#119 = VERTEX_POINT ( 'NONE', #33 ) ;
#120 = CC_DESIGN_PERSON_AND_ORGANIZATION_ASSIGNMENT ( #69, #110, ( #64 ) ) ;
#121 = DIRECTION ( 'NONE',  ( -0.0000000000000000000, -0.0000000000000000000, -1.000000000000000000 ) ) ;
#122 = CYLINDRICAL_SURFACE ( 'NONE', #175, 12.50000000000000000 ) ;
#123 = PRODUCT ( 'Web Model 36993_13296', 'Web Model 36993_13296', '', ( #21 ) ) ;
#124 = DIRECTION ( 'NONE',  ( 0.0000000000000000000, 0.0000000000000000000, 1.000000000000000000 ) ) ;
#125 =( LENGTH_UNIT ( ) NAMED_UNIT ( * ) SI_UNIT ( .MILLI., .METRE. ) );
#126 =( NAMED_UNIT ( * ) PLANE_ANGLE_UNIT ( ) SI_UNIT ( $, .RADIAN. ) );
#127 = CC_DESIGN_PERSON_AND_ORGANIZATION_ASSIGNMENT ( #76, #77, ( #118 ) ) ;
#128 = CARTESIAN_POINT ( 'NONE',  ( 0.0000000000000000000, 0.0000000000000000000, 1.500000000000000000 ) ) ;
#129 = CLOSED_SHELL ( 'NONE', ( #165, #156, #40, #141 ) ) ;
#130 = PRODUCT_DEFINITION ( 'UNKNOWN', '', #118, #13 ) ;
#131 = CARTESIAN_POINT ( 'NONE',  ( 12.50000000000000000, 1.530808498934191521E-15, 1.500000000000000000 ) ) ;
#132 = PERSON_AND_ORGANIZATION_ROLE ( 'creator' ) ;
#133 = CARTESIAN_POINT ( 'NONE',  ( 0.0000000000000000000, 0.0000000000000000000, 1.500000000000000000 ) ) ;
#134 = FACE_OUTER_BOUND ( 'NONE', #173, .T. ) ;
#135 = DIRECTION ( 'NONE',  ( 1.000000000000000000, 0.0000000000000000000, 0.0000000000000000000 ) ) ;
#136 = CC_DESIGN_APPROVAL ( #117, ( #64 ) ) ;
#137 = EDGE_CURVE ( 'NONE', #50, #78, #80, .T. ) ;
#138 = DIRECTION ( 'NONE',  ( 1.000000000000000000, 0.0000000000000000000, -0.0000000000000000000 ) ) ;
#139 = CIRCLE ( 'NONE', #99, 12.50000000000000000 ) ;
#140 = LOCAL_TIME ( 17, 17, 10.00000000000000000, #53 ) ;
#141 = ADVANCED_FACE ( 'NONE', ( #151 ), #145, .F. ) ;
#142 = PERSON_AND_ORGANIZATION ( #18, #103 ) ;
#143 = EDGE_LOOP ( 'NONE', ( #102, #89 ) ) ;
#144 = UNCERTAINTY_MEASURE_WITH_UNIT (LENGTH_MEASURE( 1.000000000000000082E-05 ), #125, 'distance_accuracy_value', 'NONE');
#145 = PLANE ( 'NONE',  #4 ) ;
#146 = CALENDAR_DATE ( 2020, 3, 11 ) ;
#147 =( NAMED_UNIT ( * ) SI_UNIT ( $, .STERADIAN. ) SOLID_ANGLE_UNIT ( ) );
#148 = EDGE_CURVE ( 'NONE', #50, #119, #34, .T. ) ;
#149 = APPROVAL_ROLE ( '' ) ;
#150 = CARTESIAN_POINT ( 'NONE',  ( 0.0000000000000000000, 0.0000000000000000000, -1.500000000000000000 ) ) ;
#151 = FACE_OUTER_BOUND ( 'NONE', #91, .T. ) ;
#152 = LOCAL_TIME ( 17, 17, 10.00000000000000000, #41 ) ;
#153 = ADVANCED_BREP_SHAPE_REPRESENTATION ( 'Web Model 36993_13296', ( #57, #44 ), #107 ) ;
#154 = PERSON_AND_ORGANIZATION ( #18, #103 ) ;
#155 = FACE_OUTER_BOUND ( 'NONE', #158, .T. ) ;
#156 = ADVANCED_FACE ( 'NONE', ( #134 ), #122, .T. ) ;
#157 = DATE_AND_TIME ( #11, #22 ) ;
#158 = EDGE_LOOP ( 'NONE', ( #116, #70, #56, #88 ) ) ;
#159 = PERSON_AND_ORGANIZATION ( #18, #103 ) ;
#160 = DIRECTION ( 'NONE',  ( 1.000000000000000000, 0.0000000000000000000, -0.0000000000000000000 ) ) ;
#161 = DIRECTION ( 'NONE',  ( 1.000000000000000000, 0.0000000000000000000, 0.0000000000000000000 ) ) ;
#162 = CARTESIAN_POINT ( 'NONE',  ( -12.50000000000000000, 0.0000000000000000000, 1.500000000000000000 ) ) ;
#163 = APPROVAL_STATUS ( 'not_yet_approved' ) ;
#164 = EDGE_CURVE ( 'NONE', #54, #119, #14, .T. ) ;
#165 = ADVANCED_FACE ( 'NONE', ( #155 ), #63, .T. ) ;
#166 = CC_DESIGN_DATE_AND_TIME_ASSIGNMENT ( #170, #114, ( #64 ) ) ;
#167 = AXIS2_PLACEMENT_3D ( 'NONE', #60, #124, #92 ) ;
#168 = ORIENTED_EDGE ( 'NONE', *, *, #109, .F. ) ;
#169 = CC_DESIGN_PERSON_AND_ORGANIZATION_ASSIGNMENT ( #154, #98, ( #118 ) ) ;
#170 = DATE_AND_TIME ( #96, #140 ) ;
#171 = DATE_TIME_ROLE ( 'creation_date' ) ;
#172 = APPLICATION_PROTOCOL_DEFINITION ( 'international standard', 'config_control_design', 1994, #174 ) ;
#173 = EDGE_LOOP ( 'NONE', ( #81, #66, #59, #17 ) ) ;
#174 = APPLICATION_CONTEXT ( 'configuration controlled 3d designs of mechanical parts and assemblies' ) ;
#175 = AXIS2_PLACEMENT_3D ( 'NONE', #61, #52, #42 ) ;
ENDSEC;
END-ISO-10303-21;
