ISO-10303-21;
HEADER;
FILE_DESCRIPTION (( 'STEP AP203' ),
    '1' );
FILE_NAME ('Web Model 63206.STEP',
    '2017-01-31T18:44:41',
    ( '' ),
    ( '' ),
    'SwSTEP 2.0',
    'SolidWorks 2016',
    '' );
FILE_SCHEMA (( 'CONFIG_CONTROL_DESIGN' ));
ENDSEC;

DATA;
#1 = ORIENTED_EDGE ( 'NONE', *, *, #63, .T. ) ;
#2 = AXIS2_PLACEMENT_3D ( 'NONE', #98, #54, #154 ) ;
#3 = LOCAL_TIME ( 13, 44, 41.00000000000000000, #106 ) ;
#4 = DIRECTION ( 'NONE',  ( 1.000000000000000000, 0.0000000000000000000, 0.0000000000000000000 ) ) ;
#5 = DIRECTION ( 'NONE',  ( -1.000000000000000000, 0.0000000000000000000, 0.0000000000000000000 ) ) ;
#6 = CARTESIAN_POINT ( 'NONE',  ( -10.00000000000000200, 0.0000000000000000000, 2.000000000000000000 ) ) ;
#7 = EDGE_LOOP ( 'NONE', ( #142, #50, #132, #150 ) ) ;
#8 = DIRECTION ( 'NONE',  ( 1.000000000000000000, 0.0000000000000000000, 0.0000000000000000000 ) ) ;
#9 =( NAMED_UNIT ( * ) SI_UNIT ( $, .STERADIAN. ) SOLID_ANGLE_UNIT ( ) );
#10 = CLOSED_SHELL ( 'NONE', ( #86, #88, #46, #131 ) ) ;
#11 = DATE_TIME_ROLE ( 'creation_date' ) ;
#12 = APPROVAL ( #102, 'UNSPECIFIED' ) ;
#13 = ORIENTED_EDGE ( 'NONE', *, *, #75, .T. ) ;
#14 = SECURITY_CLASSIFICATION_LEVEL ( 'unclassified' ) ;
#15 = DIRECTION ( 'NONE',  ( 0.0000000000000000000, 0.0000000000000000000, 1.000000000000000000 ) ) ;
#16 = CARTESIAN_POINT ( 'NONE',  ( 10.00000000000000200, 1.224646799147353500E-015, 2.000000000000000000 ) ) ;
#17 = CC_DESIGN_PERSON_AND_ORGANIZATION_ASSIGNMENT ( #163, #74, ( #143 ) ) ;
#18 = APPROVAL_ROLE ( '' ) ;
#19 = CALENDAR_DATE ( 2017, 31, 1 ) ;
#20 = VECTOR ( 'NONE', #115, 1000.000000000000000 ) ;
#21 = COORDINATED_UNIVERSAL_TIME_OFFSET ( 5, 0, .BEHIND. ) ;
#22 = PRODUCT_RELATED_PRODUCT_CATEGORY ( 'detail', '', ( #170 ) ) ;
#23 = CARTESIAN_POINT ( 'NONE',  ( 0.0000000000000000000, 0.0000000000000000000, 2.000000000000000000 ) ) ;
#24 = APPROVAL_PERSON_ORGANIZATION ( #71, #34, #133 ) ;
#25 = CARTESIAN_POINT ( 'NONE',  ( 0.0000000000000000000, 0.0000000000000000000, 2.000000000000000000 ) ) ;
#26 = PRODUCT_DEFINITION ( 'UNKNOWN', '', #119, #48 ) ;
#27 = VERTEX_POINT ( 'NONE', #124 ) ;
#28 = DIRECTION ( 'NONE',  ( -0.0000000000000000000, -0.0000000000000000000, -1.000000000000000000 ) ) ;
#29 = APPROVAL_DATE_TIME ( #105, #12 ) ;
#30 = CARTESIAN_POINT ( 'NONE',  ( 0.0000000000000000000, 0.0000000000000000000, 2.000000000000000000 ) ) ;
#31 = EDGE_CURVE ( 'NONE', #27, #135, #39, .T. ) ;
#32 = MANIFOLD_SOLID_BREP ( 'Extrude1', #10 ) ;
#33 = DATE_AND_TIME ( #146, #3 ) ;
#34 = APPROVAL ( #104, 'UNSPECIFIED' ) ;
#35 = PERSON_AND_ORGANIZATION_ROLE ( 'creator' ) ;
#36 = SHAPE_DEFINITION_REPRESENTATION ( #152, #66 ) ;
#37 = CC_DESIGN_DATE_AND_TIME_ASSIGNMENT ( #33, #11, ( #26 ) ) ;
#38 = FACE_OUTER_BOUND ( 'NONE', #80, .T. ) ;
#39 = CIRCLE ( 'NONE', #149, 10.00000000000000200 ) ;
#40 = AXIS2_PLACEMENT_3D ( 'NONE', #23, #28, #5 ) ;
#41 = CARTESIAN_POINT ( 'NONE',  ( 10.00000000000000200, 1.224646799147353500E-015, 2.000000000000000000 ) ) ;
#42 = DIRECTION ( 'NONE',  ( 0.0000000000000000000, 0.0000000000000000000, 1.000000000000000000 ) ) ;
#43 = PERSON ( 'UNSPECIFIED', 'UNSPECIFIED', 'UNSPECIFIED', ('UNSPECIFIED'), ('UNSPECIFIED'), ('UNSPECIFIED') ) ;
#44 = DIRECTION ( 'NONE',  ( 1.000000000000000000, 0.0000000000000000000, 0.0000000000000000000 ) ) ;
#45 = VERTEX_POINT ( 'NONE', #126 ) ;
#46 = ADVANCED_FACE ( 'NONE', ( #151 ), #64, .T. ) ;
#47 = ORIENTED_EDGE ( 'NONE', *, *, #75, .F. ) ;
#48 = DESIGN_CONTEXT ( 'detailed design', #85, 'design' ) ;
#49 = CC_DESIGN_PERSON_AND_ORGANIZATION_ASSIGNMENT ( #174, #70, ( #170 ) ) ;
#50 = ORIENTED_EDGE ( 'NONE', *, *, #166, .T. ) ;
#51 = CARTESIAN_POINT ( 'NONE',  ( 0.0000000000000000000, 0.0000000000000000000, 0.0000000000000000000 ) ) ;
#52 = APPROVAL_DATE_TIME ( #137, #34 ) ;
#53 = DATE_AND_TIME ( #90, #116 ) ;
#54 = DIRECTION ( 'NONE',  ( 0.0000000000000000000, 0.0000000000000000000, 1.000000000000000000 ) ) ;
#55 = PERSON_AND_ORGANIZATION ( #43, #155 ) ;
#56 = EDGE_CURVE ( 'NONE', #135, #27, #172, .T. ) ;
#57 = DATE_AND_TIME ( #148, #130 ) ;
#58 = APPROVAL_ROLE ( '' ) ;
#59 = EDGE_CURVE ( 'NONE', #45, #27, #113, .T. ) ;
#60 = CC_DESIGN_PERSON_AND_ORGANIZATION_ASSIGNMENT ( #55, #87, ( #26 ) ) ;
#61 = FACE_OUTER_BOUND ( 'NONE', #147, .T. ) ;
#62 = PERSON_AND_ORGANIZATION ( #43, #155 ) ;
#63 = EDGE_CURVE ( 'NONE', #164, #45, #162, .T. ) ;
#64 = PLANE ( 'NONE',  #109 ) ;
#65 = PERSON_AND_ORGANIZATION ( #43, #155 ) ;
#66 = ADVANCED_BREP_SHAPE_REPRESENTATION ( 'Web Model 63206', ( #32, #82 ), #68 ) ;
#67 = CYLINDRICAL_SURFACE ( 'NONE', #121, 10.00000000000000200 ) ;
#68 =( GEOMETRIC_REPRESENTATION_CONTEXT ( 3 ) GLOBAL_UNCERTAINTY_ASSIGNED_CONTEXT ( ( #94 ) ) GLOBAL_UNIT_ASSIGNED_CONTEXT ( ( #69, #165, #9 ) ) REPRESENTATION_CONTEXT ( 'NONE', 'WORKASPACE' ) );
#69 =( LENGTH_UNIT ( ) NAMED_UNIT ( * ) SI_UNIT ( .MILLI., .METRE. ) );
#70 = PERSON_AND_ORGANIZATION_ROLE ( 'design_owner' ) ;
#71 = PERSON_AND_ORGANIZATION ( #43, #155 ) ;
#72 = ORIENTED_EDGE ( 'NONE', *, *, #59, .T. ) ;
#73 = CC_DESIGN_PERSON_AND_ORGANIZATION_ASSIGNMENT ( #62, #35, ( #119 ) ) ;
#74 = PERSON_AND_ORGANIZATION_ROLE ( 'classification_officer' ) ;
#75 = EDGE_CURVE ( 'NONE', #45, #164, #120, .T. ) ;
#76 = COORDINATED_UNIVERSAL_TIME_OFFSET ( 5, 0, .BEHIND. ) ;
#77 = ORIENTED_EDGE ( 'NONE', *, *, #166, .F. ) ;
#78 = CC_DESIGN_DATE_AND_TIME_ASSIGNMENT ( #57, #118, ( #143 ) ) ;
#79 = CARTESIAN_POINT ( 'NONE',  ( 0.0000000000000000000, 0.0000000000000000000, 0.0000000000000000000 ) ) ;
#80 = EDGE_LOOP ( 'NONE', ( #99, #93 ) ) ;
#81 = VECTOR ( 'NONE', #112, 1000.000000000000000 ) ;
#82 = AXIS2_PLACEMENT_3D ( 'NONE', #51, #84, #8 ) ;
#83 = CARTESIAN_POINT ( 'NONE',  ( 0.0000000000000000000, 0.0000000000000000000, 0.0000000000000000000 ) ) ;
#84 = DIRECTION ( 'NONE',  ( 0.0000000000000000000, 0.0000000000000000000, 1.000000000000000000 ) ) ;
#85 = APPLICATION_CONTEXT ( 'configuration controlled 3d designs of mechanical parts and assemblies' ) ;
#86 = ADVANCED_FACE ( 'NONE', ( #122 ), #160, .T. ) ;
#87 = PERSON_AND_ORGANIZATION_ROLE ( 'creator' ) ;
#88 = ADVANCED_FACE ( 'NONE', ( #61 ), #67, .T. ) ;
#89 = CC_DESIGN_APPROVAL ( #34, ( #143 ) ) ;
#90 = CALENDAR_DATE ( 2017, 31, 1 ) ;
#91 = CC_DESIGN_APPROVAL ( #12, ( #119 ) ) ;
#92 = AXIS2_PLACEMENT_3D ( 'NONE', #25, #15, #110 ) ;
#93 = ORIENTED_EDGE ( 'NONE', *, *, #56, .F. ) ;
#94 = UNCERTAINTY_MEASURE_WITH_UNIT (LENGTH_MEASURE( 1.000000000000000100E-005 ), #69, 'distance_accuracy_value', 'NONE');
#95 = DIRECTION ( 'NONE',  ( 0.0000000000000000000, 0.0000000000000000000, 1.000000000000000000 ) ) ;
#96 = COORDINATED_UNIVERSAL_TIME_OFFSET ( 5, 0, .BEHIND. ) ;
#97 = DIRECTION ( 'NONE',  ( -0.0000000000000000000, -0.0000000000000000000, -1.000000000000000000 ) ) ;
#98 = CARTESIAN_POINT ( 'NONE',  ( 0.0000000000000000000, 0.0000000000000000000, 0.0000000000000000000 ) ) ;
#99 = ORIENTED_EDGE ( 'NONE', *, *, #31, .F. ) ;
#100 = APPROVAL_PERSON_ORGANIZATION ( #139, #171, #18 ) ;
#101 = APPROVAL_STATUS ( 'not_yet_approved' ) ;
#102 = APPROVAL_STATUS ( 'not_yet_approved' ) ;
#103 = CC_DESIGN_PERSON_AND_ORGANIZATION_ASSIGNMENT ( #158, #161, ( #119 ) ) ;
#104 = APPROVAL_STATUS ( 'not_yet_approved' ) ;
#105 = DATE_AND_TIME ( #19, #175 ) ;
#106 = COORDINATED_UNIVERSAL_TIME_OFFSET ( 5, 0, .BEHIND. ) ;
#107 = ORIENTED_EDGE ( 'NONE', *, *, #31, .T. ) ;
#108 = CC_DESIGN_SECURITY_CLASSIFICATION ( #143, ( #119 ) ) ;
#109 = AXIS2_PLACEMENT_3D ( 'NONE', #30, #42, #145 ) ;
#110 = DIRECTION ( 'NONE',  ( 1.000000000000000000, 0.0000000000000000000, 0.0000000000000000000 ) ) ;
#111 = DIRECTION ( 'NONE',  ( 0.0000000000000000000, 0.0000000000000000000, 1.000000000000000000 ) ) ;
#112 = DIRECTION ( 'NONE',  ( -0.0000000000000000000, -0.0000000000000000000, -1.000000000000000000 ) ) ;
#113 = LINE ( 'NONE', #6, #20 ) ;
#114 = CC_DESIGN_APPROVAL ( #171, ( #26 ) ) ;
#115 = DIRECTION ( 'NONE',  ( -0.0000000000000000000, -0.0000000000000000000, -1.000000000000000000 ) ) ;
#116 = LOCAL_TIME ( 13, 44, 41.00000000000000000, #21 ) ;
#117 = LINE ( 'NONE', #16, #81 ) ;
#118 = DATE_TIME_ROLE ( 'classification_date' ) ;
#119 = PRODUCT_DEFINITION_FORMATION_WITH_SPECIFIED_SOURCE ( 'ANY', '', #170, .NOT_KNOWN. ) ;
#120 = CIRCLE ( 'NONE', #92, 10.00000000000000200 ) ;
#121 = AXIS2_PLACEMENT_3D ( 'NONE', #167, #97, #125 ) ;
#122 = FACE_OUTER_BOUND ( 'NONE', #7, .T. ) ;
#123 = DIRECTION ( 'NONE',  ( 0.0000000000000000000, 0.0000000000000000000, 1.000000000000000000 ) ) ;
#124 = CARTESIAN_POINT ( 'NONE',  ( -10.00000000000000200, 0.0000000000000000000, 0.0000000000000000000 ) ) ;
#125 = DIRECTION ( 'NONE',  ( -1.000000000000000000, 0.0000000000000000000, 0.0000000000000000000 ) ) ;
#126 = CARTESIAN_POINT ( 'NONE',  ( -10.00000000000000200, 0.0000000000000000000, 2.000000000000000000 ) ) ;
#127 = CALENDAR_DATE ( 2017, 31, 1 ) ;
#128 = APPLICATION_CONTEXT ( 'configuration controlled 3d designs of mechanical parts and assemblies' ) ;
#129 = MECHANICAL_CONTEXT ( 'NONE', #128, 'mechanical' ) ;
#130 = LOCAL_TIME ( 13, 44, 41.00000000000000000, #76 ) ;
#131 = ADVANCED_FACE ( 'NONE', ( #38 ), #138, .F. ) ;
#132 = ORIENTED_EDGE ( 'NONE', *, *, #56, .T. ) ;
#133 = APPROVAL_ROLE ( '' ) ;
#134 = APPROVAL_DATE_TIME ( #53, #171 ) ;
#135 = VERTEX_POINT ( 'NONE', #140 ) ;
#136 = AXIS2_PLACEMENT_3D ( 'NONE', #83, #123, #44 ) ;
#137 = DATE_AND_TIME ( #127, #141 ) ;
#138 = PLANE ( 'NONE',  #2 ) ;
#139 = PERSON_AND_ORGANIZATION ( #43, #155 ) ;
#140 = CARTESIAN_POINT ( 'NONE',  ( 10.00000000000000200, 1.224646799147353500E-015, 0.0000000000000000000 ) ) ;
#141 = LOCAL_TIME ( 13, 44, 41.00000000000000000, #96 ) ;
#142 = ORIENTED_EDGE ( 'NONE', *, *, #63, .F. ) ;
#143 = SECURITY_CLASSIFICATION ( '', '', #14 ) ;
#144 = COORDINATED_UNIVERSAL_TIME_OFFSET ( 5, 0, .BEHIND. ) ;
#145 = DIRECTION ( 'NONE',  ( 1.000000000000000000, 0.0000000000000000000, -0.0000000000000000000 ) ) ;
#146 = CALENDAR_DATE ( 2017, 31, 1 ) ;
#147 = EDGE_LOOP ( 'NONE', ( #77, #47, #72, #107 ) ) ;
#148 = CALENDAR_DATE ( 2017, 31, 1 ) ;
#149 = AXIS2_PLACEMENT_3D ( 'NONE', #79, #111, #4 ) ;
#150 = ORIENTED_EDGE ( 'NONE', *, *, #59, .F. ) ;
#151 = FACE_OUTER_BOUND ( 'NONE', #156, .T. ) ;
#152 = PRODUCT_DEFINITION_SHAPE ( 'NONE', 'NONE',  #26 ) ;
#153 = DIRECTION ( 'NONE',  ( 1.000000000000000000, 0.0000000000000000000, 0.0000000000000000000 ) ) ;
#154 = DIRECTION ( 'NONE',  ( 1.000000000000000000, 0.0000000000000000000, -0.0000000000000000000 ) ) ;
#155 = ORGANIZATION ( 'UNSPECIFIED', 'UNSPECIFIED', '' ) ;
#156 = EDGE_LOOP ( 'NONE', ( #13, #1 ) ) ;
#157 = APPLICATION_PROTOCOL_DEFINITION ( 'international standard', 'config_control_design', 1994, #128 ) ;
#158 = PERSON_AND_ORGANIZATION ( #43, #155 ) ;
#159 = APPLICATION_PROTOCOL_DEFINITION ( 'international standard', 'config_control_design', 1994, #85 ) ;
#160 = CYLINDRICAL_SURFACE ( 'NONE', #40, 10.00000000000000200 ) ;
#161 = PERSON_AND_ORGANIZATION_ROLE ( 'design_supplier' ) ;
#162 = CIRCLE ( 'NONE', #173, 10.00000000000000200 ) ;
#163 = PERSON_AND_ORGANIZATION ( #43, #155 ) ;
#164 = VERTEX_POINT ( 'NONE', #41 ) ;
#165 =( NAMED_UNIT ( * ) PLANE_ANGLE_UNIT ( ) SI_UNIT ( $, .RADIAN. ) );
#166 = EDGE_CURVE ( 'NONE', #164, #135, #117, .T. ) ;
#167 = CARTESIAN_POINT ( 'NONE',  ( 0.0000000000000000000, 0.0000000000000000000, 2.000000000000000000 ) ) ;
#168 = APPROVAL_PERSON_ORGANIZATION ( #65, #12, #58 ) ;
#169 = CARTESIAN_POINT ( 'NONE',  ( 0.0000000000000000000, 0.0000000000000000000, 2.000000000000000000 ) ) ;
#170 = PRODUCT ( 'Web Model 63206', 'Web Model 63206', '', ( #129 ) ) ;
#171 = APPROVAL ( #101, 'UNSPECIFIED' ) ;
#172 = CIRCLE ( 'NONE', #136, 10.00000000000000200 ) ;
#173 = AXIS2_PLACEMENT_3D ( 'NONE', #169, #95, #153 ) ;
#174 = PERSON_AND_ORGANIZATION ( #43, #155 ) ;
#175 = LOCAL_TIME ( 13, 44, 41.00000000000000000, #144 ) ;
ENDSEC;
END-ISO-10303-21;
