ISO-10303-21;
HEADER;
FILE_DESCRIPTION (( 'STEP AP203' ),
    '1' );
FILE_NAME ('Web Model 19822_19823.step',
    '2022-01-03T21:57:46',
    ( '' ),
    ( '' ),
    'SwSTEP 2.0',
    'SolidWorks 2018',
    '' );
FILE_SCHEMA (( 'CONFIG_CONTROL_DESIGN' ));
ENDSEC;

DATA;
#1 = CARTESIAN_POINT ( 'NONE',  ( 0.000000000000000000, 0.000000000000000000, 0.000000000000000000 ) ) ;
#2 = EDGE_LOOP ( 'NONE', ( #75, #112 ) ) ;
#3 = PRODUCT_RELATED_PRODUCT_CATEGORY ( 'detail', '', ( #83 ) ) ;
#4 = EDGE_CURVE ( 'NONE', #148, #141, #93, .T. ) ;
#5 = EDGE_LOOP ( 'NONE', ( #151, #118, #146, #116 ) ) ;
#6 = EDGE_LOOP ( 'NONE', ( #136, #104 ) ) ;
#7 = COORDINATED_UNIVERSAL_TIME_OFFSET ( 5, 0, .BEHIND. ) ;
#8 = ADVANCED_FACE ( 'NONE', ( #153 ), #38, .T. ) ;
#9 = ORIENTED_EDGE ( 'NONE', *, *, #37, .F. ) ;
#10 = PERSON_AND_ORGANIZATION_ROLE ( 'creator' ) ;
#11 = LOCAL_TIME ( 16, 57, 46.00000000000000000, #7 ) ;
#12 = APPLICATION_CONTEXT ( 'configuration controlled 3d designs of mechanical parts and assemblies' ) ;
#13 = APPLICATION_CONTEXT ( 'configuration controlled 3d designs of mechanical parts and assemblies' ) ;
#14 = CC_DESIGN_APPROVAL ( #125, ( #103 ) ) ;
#15 = CALENDAR_DATE ( 2022, 3, 1 ) ;
#16 = VECTOR ( 'NONE', #47, 1000.000000000000000 ) ;
#17 = EDGE_CURVE ( 'NONE', #48, #141, #158, .T. ) ;
#18 = VERTEX_POINT ( 'NONE', #102 ) ;
#19 = DIRECTION ( 'NONE',  ( 0.000000000000000000, 0.000000000000000000, 1.000000000000000000 ) ) ;
#20 = DATE_AND_TIME ( #80, #149 ) ;
#21 = FACE_OUTER_BOUND ( 'NONE', #51, .T. ) ;
#22 = CC_DESIGN_APPROVAL ( #39, ( #24 ) ) ;
#23 = MANIFOLD_SOLID_BREP ( 'Boss-Extrude1', #154 ) ;
#24 = PRODUCT_DEFINITION_FORMATION_WITH_SPECIFIED_SOURCE ( 'ANY', '', #83, .NOT_KNOWN. ) ;
#25 = ADVANCED_FACE ( 'NONE', ( #162 ), #152, .F. ) ;
#26 = EDGE_CURVE ( 'NONE', #18, #48, #142, .T. ) ;
#27 = SECURITY_CLASSIFICATION_LEVEL ( 'unclassified' ) ;
#28 =( GEOMETRIC_REPRESENTATION_CONTEXT ( 3 ) GLOBAL_UNCERTAINTY_ASSIGNED_CONTEXT ( ( #57 ) ) GLOBAL_UNIT_ASSIGNED_CONTEXT ( ( #61, #81, #174 ) ) REPRESENTATION_CONTEXT ( 'NONE', 'WORKASPACE' ) );
#29 = DIRECTION ( 'NONE',  ( -1.000000000000000000, 0.000000000000000000, 0.000000000000000000 ) ) ;
#30 = DIRECTION ( 'NONE',  ( -0.000000000000000000, -0.000000000000000000, -1.000000000000000000 ) ) ;
#31 = PERSON_AND_ORGANIZATION ( #54, #44 ) ;
#32 = CARTESIAN_POINT ( 'NONE',  ( 0.000000000000000000, 0.000000000000000000, 1.500000000000000000 ) ) ;
#33 = DIRECTION ( 'NONE',  ( 0.000000000000000000, 0.000000000000000000, 1.000000000000000000 ) ) ;
#34 = APPROVAL_DATE_TIME ( #92, #171 ) ;
#35 = ORIENTED_EDGE ( 'NONE', *, *, #4, .F. ) ;
#36 = DIRECTION ( 'NONE',  ( 0.000000000000000000, 0.000000000000000000, 1.000000000000000000 ) ) ;
#37 = EDGE_CURVE ( 'NONE', #18, #148, #130, .T. ) ;
#38 = CYLINDRICAL_SURFACE ( 'NONE', #41, 5.000000000000000000 ) ;
#39 = APPROVAL ( #56, 'UNSPECIFIED' ) ;
#40 = APPROVAL_STATUS ( 'not_yet_approved' ) ;
#41 = AXIS2_PLACEMENT_3D ( 'NONE', #87, #65, #164 ) ;
#42 = CARTESIAN_POINT ( 'NONE',  ( -5.000000000000000000, 0.000000000000000000, 1.500000000000000000 ) ) ;
#43 = ORIENTED_EDGE ( 'NONE', *, *, #17, .T. ) ;
#44 = ORGANIZATION ( 'UNSPECIFIED', 'UNSPECIFIED', '' ) ;
#45 = APPROVAL_PERSON_ORGANIZATION ( #119, #125, #84 ) ;
#46 = CC_DESIGN_PERSON_AND_ORGANIZATION_ASSIGNMENT ( #89, #123, ( #103 ) ) ;
#47 = DIRECTION ( 'NONE',  ( -0.000000000000000000, -0.000000000000000000, -1.000000000000000000 ) ) ;
#48 = VERTEX_POINT ( 'NONE', #138 ) ;
#49 = COORDINATED_UNIVERSAL_TIME_OFFSET ( 5, 0, .BEHIND. ) ;
#50 = CC_DESIGN_DATE_AND_TIME_ASSIGNMENT ( #120, #69, ( #103 ) ) ;
#51 = EDGE_LOOP ( 'NONE', ( #35, #9, #74, #43 ) ) ;
#52 = PRODUCT_DEFINITION_SHAPE ( 'NONE', 'NONE',  #103 ) ;
#53 = LOCAL_TIME ( 16, 57, 46.00000000000000000, #163 ) ;
#54 = PERSON ( 'UNSPECIFIED', 'UNSPECIFIED', 'UNSPECIFIED', ('UNSPECIFIED'), ('UNSPECIFIED'), ('UNSPECIFIED') ) ;
#55 = CIRCLE ( 'NONE', #99, 5.000000000000000000 ) ;
#56 = APPROVAL_STATUS ( 'not_yet_approved' ) ;
#57 = UNCERTAINTY_MEASURE_WITH_UNIT (LENGTH_MEASURE( 1.000000000000000082E-05 ), #61, 'distance_accuracy_value', 'NONE');
#58 = CARTESIAN_POINT ( 'NONE',  ( 0.000000000000000000, 0.000000000000000000, 0.000000000000000000 ) ) ;
#59 = CARTESIAN_POINT ( 'NONE',  ( 5.000000000000000000, 6.123233995736766282E-16, 0.000000000000000000 ) ) ;
#60 = CC_DESIGN_PERSON_AND_ORGANIZATION_ASSIGNMENT ( #88, #110, ( #83 ) ) ;
#61 =( LENGTH_UNIT ( ) NAMED_UNIT ( * ) SI_UNIT ( .MILLI., .METRE. ) );
#62 = PERSON_AND_ORGANIZATION ( #54, #44 ) ;
#63 = DIRECTION ( 'NONE',  ( 1.000000000000000000, 0.000000000000000000, 0.000000000000000000 ) ) ;
#64 = AXIS2_PLACEMENT_3D ( 'NONE', #32, #143, #172 ) ;
#65 = DIRECTION ( 'NONE',  ( -0.000000000000000000, -0.000000000000000000, -1.000000000000000000 ) ) ;
#66 = CARTESIAN_POINT ( 'NONE',  ( 5.000000000000000000, 6.123233995736766282E-16, 1.500000000000000000 ) ) ;
#67 = CALENDAR_DATE ( 2022, 3, 1 ) ;
#68 = CC_DESIGN_APPROVAL ( #171, ( #115 ) ) ;
#69 = DATE_TIME_ROLE ( 'creation_date' ) ;
#70 = CARTESIAN_POINT ( 'NONE',  ( 0.000000000000000000, 0.000000000000000000, 0.000000000000000000 ) ) ;
#71 = APPROVAL_PERSON_ORGANIZATION ( #31, #171, #135 ) ;
#72 = FACE_OUTER_BOUND ( 'NONE', #6, .T. ) ;
#73 = DIRECTION ( 'NONE',  ( 0.000000000000000000, 0.000000000000000000, 1.000000000000000000 ) ) ;
#74 = ORIENTED_EDGE ( 'NONE', *, *, #26, .T. ) ;
#75 = ORIENTED_EDGE ( 'NONE', *, *, #17, .F. ) ;
#76 = VECTOR ( 'NONE', #85, 1000.000000000000000 ) ;
#77 = DIRECTION ( 'NONE',  ( 1.000000000000000000, 0.000000000000000000, -0.000000000000000000 ) ) ;
#78 = CC_DESIGN_PERSON_AND_ORGANIZATION_ASSIGNMENT ( #124, #10, ( #24 ) ) ;
#79 = AXIS2_PLACEMENT_3D ( 'NONE', #165, #19, #77 ) ;
#80 = CALENDAR_DATE ( 2022, 3, 1 ) ;
#81 =( NAMED_UNIT ( * ) PLANE_ANGLE_UNIT ( ) SI_UNIT ( $, .RADIAN. ) );
#82 = DATE_AND_TIME ( #117, #166 ) ;
#83 = PRODUCT ( 'Web Model 19822_19823', 'Web Model 19822_19823', '', ( #157 ) ) ;
#84 = APPROVAL_ROLE ( '' ) ;
#85 = DIRECTION ( 'NONE',  ( -0.000000000000000000, -0.000000000000000000, -1.000000000000000000 ) ) ;
#86 = PERSON_AND_ORGANIZATION ( #54, #44 ) ;
#87 = CARTESIAN_POINT ( 'NONE',  ( 0.000000000000000000, 0.000000000000000000, 1.500000000000000000 ) ) ;
#88 = PERSON_AND_ORGANIZATION ( #54, #44 ) ;
#89 = PERSON_AND_ORGANIZATION ( #54, #44 ) ;
#90 = CIRCLE ( 'NONE', #127, 5.000000000000000000 ) ;
#91 = AXIS2_PLACEMENT_3D ( 'NONE', #1, #36, #150 ) ;
#92 = DATE_AND_TIME ( #15, #94 ) ;
#93 = LINE ( 'NONE', #66, #16 ) ;
#94 = LOCAL_TIME ( 16, 57, 46.00000000000000000, #49 ) ;
#95 = APPROVAL_ROLE ( '' ) ;
#96 = DIRECTION ( 'NONE',  ( 0.000000000000000000, 0.000000000000000000, 1.000000000000000000 ) ) ;
#97 = CARTESIAN_POINT ( 'NONE',  ( 0.000000000000000000, 0.000000000000000000, 1.500000000000000000 ) ) ;
#98 = DIRECTION ( 'NONE',  ( 1.000000000000000000, 0.000000000000000000, 0.000000000000000000 ) ) ;
#99 = AXIS2_PLACEMENT_3D ( 'NONE', #58, #73, #63 ) ;
#100 = CC_DESIGN_SECURITY_CLASSIFICATION ( #115, ( #24 ) ) ;
#101 = APPROVAL_PERSON_ORGANIZATION ( #62, #39, #95 ) ;
#102 = CARTESIAN_POINT ( 'NONE',  ( -5.000000000000000000, 0.000000000000000000, 1.500000000000000000 ) ) ;
#103 = PRODUCT_DEFINITION ( 'UNKNOWN', '', #24, #129 ) ;
#104 = ORIENTED_EDGE ( 'NONE', *, *, #173, .T. ) ;
#105 = AXIS2_PLACEMENT_3D ( 'NONE', #161, #145, #139 ) ;
#106 = PERSON_AND_ORGANIZATION_ROLE ( 'design_supplier' ) ;
#107 = ADVANCED_FACE ( 'NONE', ( #72 ), #113, .T. ) ;
#108 = CARTESIAN_POINT ( 'NONE',  ( 0.000000000000000000, 0.000000000000000000, 1.500000000000000000 ) ) ;
#109 = CC_DESIGN_PERSON_AND_ORGANIZATION_ASSIGNMENT ( #86, #121, ( #115 ) ) ;
#110 = PERSON_AND_ORGANIZATION_ROLE ( 'design_owner' ) ;
#111 = CC_DESIGN_DATE_AND_TIME_ASSIGNMENT ( #82, #144, ( #115 ) ) ;
#112 = ORIENTED_EDGE ( 'NONE', *, *, #169, .F. ) ;
#113 = PLANE ( 'NONE',  #105 ) ;
#114 = SHAPE_DEFINITION_REPRESENTATION ( #52, #140 ) ;
#115 = SECURITY_CLASSIFICATION ( '', '', #27 ) ;
#116 = ORIENTED_EDGE ( 'NONE', *, *, #26, .F. ) ;
#117 = CALENDAR_DATE ( 2022, 3, 1 ) ;
#118 = ORIENTED_EDGE ( 'NONE', *, *, #4, .T. ) ;
#119 = PERSON_AND_ORGANIZATION ( #54, #44 ) ;
#120 = DATE_AND_TIME ( #128, #53 ) ;
#121 = PERSON_AND_ORGANIZATION_ROLE ( 'classification_officer' ) ;
#122 = DIRECTION ( 'NONE',  ( 1.000000000000000000, 0.000000000000000000, 0.000000000000000000 ) ) ;
#123 = PERSON_AND_ORGANIZATION_ROLE ( 'creator' ) ;
#124 = PERSON_AND_ORGANIZATION ( #54, #44 ) ;
#125 = APPROVAL ( #134, 'UNSPECIFIED' ) ;
#126 = CYLINDRICAL_SURFACE ( 'NONE', #175, 5.000000000000000000 ) ;
#127 = AXIS2_PLACEMENT_3D ( 'NONE', #108, #33, #122 ) ;
#128 = CALENDAR_DATE ( 2022, 3, 1 ) ;
#129 = DESIGN_CONTEXT ( 'detailed design', #12, 'design' ) ;
#130 = CIRCLE ( 'NONE', #64, 5.000000000000000000 ) ;
#131 = COORDINATED_UNIVERSAL_TIME_OFFSET ( 5, 0, .BEHIND. ) ;
#132 = APPROVAL_DATE_TIME ( #155, #39 ) ;
#133 = AXIS2_PLACEMENT_3D ( 'NONE', #70, #96, #98 ) ;
#134 = APPROVAL_STATUS ( 'not_yet_approved' ) ;
#135 = APPROVAL_ROLE ( '' ) ;
#136 = ORIENTED_EDGE ( 'NONE', *, *, #37, .T. ) ;
#137 = APPROVAL_DATE_TIME ( #20, #125 ) ;
#138 = CARTESIAN_POINT ( 'NONE',  ( -5.000000000000000000, 0.000000000000000000, 0.000000000000000000 ) ) ;
#139 = DIRECTION ( 'NONE',  ( 1.000000000000000000, 0.000000000000000000, -0.000000000000000000 ) ) ;
#140 = ADVANCED_BREP_SHAPE_REPRESENTATION ( 'Web Model 19822_19823', ( #23, #133 ), #28 ) ;
#141 = VERTEX_POINT ( 'NONE', #59 ) ;
#142 = LINE ( 'NONE', #42, #76 ) ;
#143 = DIRECTION ( 'NONE',  ( 0.000000000000000000, 0.000000000000000000, 1.000000000000000000 ) ) ;
#144 = DATE_TIME_ROLE ( 'classification_date' ) ;
#145 = DIRECTION ( 'NONE',  ( 0.000000000000000000, 0.000000000000000000, 1.000000000000000000 ) ) ;
#146 = ORIENTED_EDGE ( 'NONE', *, *, #169, .T. ) ;
#147 = PERSON_AND_ORGANIZATION ( #54, #44 ) ;
#148 = VERTEX_POINT ( 'NONE', #159 ) ;
#149 = LOCAL_TIME ( 16, 57, 46.00000000000000000, #131 ) ;
#150 = DIRECTION ( 'NONE',  ( 1.000000000000000000, 0.000000000000000000, 0.000000000000000000 ) ) ;
#151 = ORIENTED_EDGE ( 'NONE', *, *, #173, .F. ) ;
#152 = PLANE ( 'NONE',  #79 ) ;
#153 = FACE_OUTER_BOUND ( 'NONE', #5, .T. ) ;
#154 = CLOSED_SHELL ( 'NONE', ( #8, #167, #107, #25 ) ) ;
#155 = DATE_AND_TIME ( #67, #11 ) ;
#156 = APPLICATION_PROTOCOL_DEFINITION ( 'international standard', 'config_control_design', 1994, #13 ) ;
#157 = MECHANICAL_CONTEXT ( 'NONE', #13, 'mechanical' ) ;
#158 = CIRCLE ( 'NONE', #91, 5.000000000000000000 ) ;
#159 = CARTESIAN_POINT ( 'NONE',  ( 5.000000000000000000, 6.123233995736766282E-16, 1.500000000000000000 ) ) ;
#160 = COORDINATED_UNIVERSAL_TIME_OFFSET ( 5, 0, .BEHIND. ) ;
#161 = CARTESIAN_POINT ( 'NONE',  ( 0.000000000000000000, 0.000000000000000000, 1.500000000000000000 ) ) ;
#162 = FACE_OUTER_BOUND ( 'NONE', #2, .T. ) ;
#163 = COORDINATED_UNIVERSAL_TIME_OFFSET ( 5, 0, .BEHIND. ) ;
#164 = DIRECTION ( 'NONE',  ( -1.000000000000000000, 0.000000000000000000, 0.000000000000000000 ) ) ;
#165 = CARTESIAN_POINT ( 'NONE',  ( 0.000000000000000000, 0.000000000000000000, 0.000000000000000000 ) ) ;
#166 = LOCAL_TIME ( 16, 57, 46.00000000000000000, #160 ) ;
#167 = ADVANCED_FACE ( 'NONE', ( #21 ), #126, .T. ) ;
#168 = CC_DESIGN_PERSON_AND_ORGANIZATION_ASSIGNMENT ( #147, #106, ( #24 ) ) ;
#169 = EDGE_CURVE ( 'NONE', #141, #48, #55, .T. ) ;
#170 = APPLICATION_PROTOCOL_DEFINITION ( 'international standard', 'config_control_design', 1994, #12 ) ;
#171 = APPROVAL ( #40, 'UNSPECIFIED' ) ;
#172 = DIRECTION ( 'NONE',  ( 1.000000000000000000, 0.000000000000000000, 0.000000000000000000 ) ) ;
#173 = EDGE_CURVE ( 'NONE', #148, #18, #90, .T. ) ;
#174 =( NAMED_UNIT ( * ) SI_UNIT ( $, .STERADIAN. ) SOLID_ANGLE_UNIT ( ) );
#175 = AXIS2_PLACEMENT_3D ( 'NONE', #97, #30, #29 ) ;
ENDSEC;
END-ISO-10303-21;
