ISO-10303-21;
HEADER;
FILE_DESCRIPTION (( 'STEP AP203' ),
    '1' );
FILE_NAME ('Web Model 65927.STEP',
    '2017-01-31T19:32:37',
    ( '' ),
    ( '' ),
    'SwSTEP 2.0',
    'SolidWorks 2016',
    '' );
FILE_SCHEMA (( 'CONFIG_CONTROL_DESIGN' ));
ENDSEC;

DATA;
#1 = SECURITY_CLASSIFICATION ( '', '', #59 ) ;
#2 = CYLINDRICAL_SURFACE ( 'NONE', #65, 20.00000000000000000 ) ;
#3 = LOCAL_TIME ( 14, 32, 37.00000000000000000, #104 ) ;
#4 = MANIFOLD_SOLID_BREP ( 'Extrude1', #62 ) ;
#5 = PERSON ( 'UNSPECIFIED', 'UNSPECIFIED', 'UNSPECIFIED', ('UNSPECIFIED'), ('UNSPECIFIED'), ('UNSPECIFIED') ) ;
#6 = EDGE_CURVE ( 'NONE', #119, #150, #57, .T. ) ;
#7 = EDGE_LOOP ( 'NONE', ( #168, #15, #132, #135 ) ) ;
#8 = CC_DESIGN_PERSON_AND_ORGANIZATION_ASSIGNMENT ( #134, #29, ( #174 ) ) ;
#9 = CARTESIAN_POINT ( 'NONE',  ( -20.00000000000000000, 0.0000000000000000000, 0.0000000000000000000 ) ) ;
#10 = CARTESIAN_POINT ( 'NONE',  ( 0.0000000000000000000, 0.0000000000000000000, 4.000000000000000000 ) ) ;
#11 = APPROVAL_DATE_TIME ( #88, #97 ) ;
#12 = DIRECTION ( 'NONE',  ( 0.0000000000000000000, 0.0000000000000000000, 1.000000000000000000 ) ) ;
#13 = CARTESIAN_POINT ( 'NONE',  ( 0.0000000000000000000, 0.0000000000000000000, 4.000000000000000000 ) ) ;
#14 = CALENDAR_DATE ( 2017, 31, 1 ) ;
#15 = ORIENTED_EDGE ( 'NONE', *, *, #87, .T. ) ;
#16 = CC_DESIGN_DATE_AND_TIME_ASSIGNMENT ( #79, #58, ( #1 ) ) ;
#17 = MECHANICAL_CONTEXT ( 'NONE', #154, 'mechanical' ) ;
#18 = AXIS2_PLACEMENT_3D ( 'NONE', #22, #127, #45 ) ;
#19 = APPROVAL_DATE_TIME ( #107, #94 ) ;
#20 = FACE_OUTER_BOUND ( 'NONE', #30, .T. ) ;
#21 = DATE_AND_TIME ( #103, #25 ) ;
#22 = CARTESIAN_POINT ( 'NONE',  ( 0.0000000000000000000, 0.0000000000000000000, 0.0000000000000000000 ) ) ;
#23 = UNCERTAINTY_MEASURE_WITH_UNIT (LENGTH_MEASURE( 1.000000000000000100E-005 ), #40, 'distance_accuracy_value', 'NONE');
#24 = CARTESIAN_POINT ( 'NONE',  ( 0.0000000000000000000, 0.0000000000000000000, 4.000000000000000000 ) ) ;
#25 = LOCAL_TIME ( 14, 32, 37.00000000000000000, #136 ) ;
#26 = DIRECTION ( 'NONE',  ( -1.000000000000000000, 0.0000000000000000000, 0.0000000000000000000 ) ) ;
#27 = APPLICATION_CONTEXT ( 'configuration controlled 3d designs of mechanical parts and assemblies' ) ;
#28 = DATE_TIME_ROLE ( 'creation_date' ) ;
#29 = PERSON_AND_ORGANIZATION_ROLE ( 'design_supplier' ) ;
#30 = EDGE_LOOP ( 'NONE', ( #142, #171, #99, #140 ) ) ;
#31 = ORIENTED_EDGE ( 'NONE', *, *, #75, .T. ) ;
#32 = ADVANCED_FACE ( 'NONE', ( #144 ), #114, .F. ) ;
#33 = COORDINATED_UNIVERSAL_TIME_OFFSET ( 5, 0, .BEHIND. ) ;
#34 = ORGANIZATION ( 'UNSPECIFIED', 'UNSPECIFIED', '' ) ;
#35 = CC_DESIGN_SECURITY_CLASSIFICATION ( #1, ( #174 ) ) ;
#36 = DIRECTION ( 'NONE',  ( 0.0000000000000000000, 0.0000000000000000000, 1.000000000000000000 ) ) ;
#37 = CARTESIAN_POINT ( 'NONE',  ( -20.00000000000000000, 0.0000000000000000000, 4.000000000000000000 ) ) ;
#38 = PRODUCT ( 'Web Model 65927', 'Web Model 65927', '', ( #17 ) ) ;
#39 = ORIENTED_EDGE ( 'NONE', *, *, #61, .T. ) ;
#40 =( LENGTH_UNIT ( ) NAMED_UNIT ( * ) SI_UNIT ( .MILLI., .METRE. ) );
#41 = CARTESIAN_POINT ( 'NONE',  ( 0.0000000000000000000, 0.0000000000000000000, 0.0000000000000000000 ) ) ;
#42 = APPROVAL_DATE_TIME ( #21, #67 ) ;
#43 = CIRCLE ( 'NONE', #95, 20.00000000000000000 ) ;
#44 = APPROVAL_ROLE ( '' ) ;
#45 = DIRECTION ( 'NONE',  ( 1.000000000000000000, 0.0000000000000000000, 0.0000000000000000000 ) ) ;
#46 = AXIS2_PLACEMENT_3D ( 'NONE', #159, #112, #151 ) ;
#47 = ADVANCED_FACE ( 'NONE', ( #166 ), #172, .T. ) ;
#48 = CC_DESIGN_APPROVAL ( #67, ( #109 ) ) ;
#49 = LOCAL_TIME ( 14, 32, 37.00000000000000000, #91 ) ;
#50 = DESIGN_CONTEXT ( 'detailed design', #27, 'design' ) ;
#51 = AXIS2_PLACEMENT_3D ( 'NONE', #10, #36, #158 ) ;
#52 = CALENDAR_DATE ( 2017, 31, 1 ) ;
#53 = EDGE_CURVE ( 'NONE', #150, #73, #123, .T. ) ;
#54 = CARTESIAN_POINT ( 'NONE',  ( 20.00000000000000000, 2.449293598294706500E-015, 4.000000000000000000 ) ) ;
#55 = CARTESIAN_POINT ( 'NONE',  ( 20.00000000000000000, 2.449293598294706500E-015, 0.0000000000000000000 ) ) ;
#56 = DATE_AND_TIME ( #124, #49 ) ;
#57 = LINE ( 'NONE', #37, #90 ) ;
#58 = DATE_TIME_ROLE ( 'classification_date' ) ;
#59 = SECURITY_CLASSIFICATION_LEVEL ( 'unclassified' ) ;
#60 = CALENDAR_DATE ( 2017, 31, 1 ) ;
#61 = EDGE_CURVE ( 'NONE', #119, #85, #43, .T. ) ;
#62 = CLOSED_SHELL ( 'NONE', ( #121, #165, #47, #32 ) ) ;
#63 = VECTOR ( 'NONE', #83, 1000.000000000000000 ) ;
#64 = APPROVAL_PERSON_ORGANIZATION ( #105, #67, #44 ) ;
#65 = AXIS2_PLACEMENT_3D ( 'NONE', #13, #169, #110 ) ;
#66 = CIRCLE ( 'NONE', #51, 20.00000000000000000 ) ;
#67 = APPROVAL ( #173, 'UNSPECIFIED' ) ;
#68 = DIRECTION ( 'NONE',  ( 1.000000000000000000, 0.0000000000000000000, -0.0000000000000000000 ) ) ;
#69 = DIRECTION ( 'NONE',  ( 0.0000000000000000000, 0.0000000000000000000, 1.000000000000000000 ) ) ;
#70 = CARTESIAN_POINT ( 'NONE',  ( 0.0000000000000000000, 0.0000000000000000000, 0.0000000000000000000 ) ) ;
#71 = AXIS2_PLACEMENT_3D ( 'NONE', #41, #170, #68 ) ;
#72 = CC_DESIGN_PERSON_AND_ORGANIZATION_ASSIGNMENT ( #98, #117, ( #109 ) ) ;
#73 = VERTEX_POINT ( 'NONE', #55 ) ;
#74 = PERSON_AND_ORGANIZATION_ROLE ( 'design_owner' ) ;
#75 = EDGE_CURVE ( 'NONE', #85, #119, #66, .T. ) ;
#76 = PERSON_AND_ORGANIZATION ( #5, #34 ) ;
#77 = CC_DESIGN_PERSON_AND_ORGANIZATION_ASSIGNMENT ( #76, #74, ( #38 ) ) ;
#78 = EDGE_LOOP ( 'NONE', ( #126, #153 ) ) ;
#79 = DATE_AND_TIME ( #52, #92 ) ;
#80 = CARTESIAN_POINT ( 'NONE',  ( -20.00000000000000000, 0.0000000000000000000, 4.000000000000000000 ) ) ;
#81 = EDGE_CURVE ( 'NONE', #73, #150, #108, .T. ) ;
#82 = CARTESIAN_POINT ( 'NONE',  ( 20.00000000000000000, 2.449293598294706500E-015, 4.000000000000000000 ) ) ;
#83 = DIRECTION ( 'NONE',  ( -0.0000000000000000000, -0.0000000000000000000, -1.000000000000000000 ) ) ;
#84 = CC_DESIGN_APPROVAL ( #94, ( #174 ) ) ;
#85 = VERTEX_POINT ( 'NONE', #54 ) ;
#86 =( NAMED_UNIT ( * ) SI_UNIT ( $, .STERADIAN. ) SOLID_ANGLE_UNIT ( ) );
#87 = EDGE_CURVE ( 'NONE', #85, #73, #146, .T. ) ;
#88 = DATE_AND_TIME ( #14, #3 ) ;
#89 = APPLICATION_PROTOCOL_DEFINITION ( 'international standard', 'config_control_design', 1994, #27 ) ;
#90 = VECTOR ( 'NONE', #137, 1000.000000000000000 ) ;
#91 = COORDINATED_UNIVERSAL_TIME_OFFSET ( 5, 0, .BEHIND. ) ;
#92 = LOCAL_TIME ( 14, 32, 37.00000000000000000, #163 ) ;
#93 = EDGE_LOOP ( 'NONE', ( #39, #31 ) ) ;
#94 = APPROVAL ( #133, 'UNSPECIFIED' ) ;
#95 = AXIS2_PLACEMENT_3D ( 'NONE', #111, #160, #148 ) ;
#96 = CARTESIAN_POINT ( 'NONE',  ( 0.0000000000000000000, 0.0000000000000000000, 4.000000000000000000 ) ) ;
#97 = APPROVAL ( #164, 'UNSPECIFIED' ) ;
#98 = PERSON_AND_ORGANIZATION ( #5, #34 ) ;
#99 = ORIENTED_EDGE ( 'NONE', *, *, #6, .T. ) ;
#100 = DIRECTION ( 'NONE',  ( -0.0000000000000000000, -0.0000000000000000000, -1.000000000000000000 ) ) ;
#101 = AXIS2_PLACEMENT_3D ( 'NONE', #96, #12, #113 ) ;
#102 =( NAMED_UNIT ( * ) PLANE_ANGLE_UNIT ( ) SI_UNIT ( $, .RADIAN. ) );
#103 = CALENDAR_DATE ( 2017, 31, 1 ) ;
#104 = COORDINATED_UNIVERSAL_TIME_OFFSET ( 5, 0, .BEHIND. ) ;
#105 = PERSON_AND_ORGANIZATION ( #5, #34 ) ;
#106 = CC_DESIGN_APPROVAL ( #97, ( #1 ) ) ;
#107 = DATE_AND_TIME ( #60, #130 ) ;
#108 = CIRCLE ( 'NONE', #46, 20.00000000000000000 ) ;
#109 = PRODUCT_DEFINITION ( 'UNKNOWN', '', #174, #50 ) ;
#110 = DIRECTION ( 'NONE',  ( -1.000000000000000000, 0.0000000000000000000, 0.0000000000000000000 ) ) ;
#111 = CARTESIAN_POINT ( 'NONE',  ( 0.0000000000000000000, 0.0000000000000000000, 4.000000000000000000 ) ) ;
#112 = DIRECTION ( 'NONE',  ( 0.0000000000000000000, 0.0000000000000000000, 1.000000000000000000 ) ) ;
#113 = DIRECTION ( 'NONE',  ( 1.000000000000000000, 0.0000000000000000000, -0.0000000000000000000 ) ) ;
#114 = PLANE ( 'NONE',  #71 ) ;
#115 = SHAPE_DEFINITION_REPRESENTATION ( #155, #157 ) ;
#116 = APPLICATION_PROTOCOL_DEFINITION ( 'international standard', 'config_control_design', 1994, #154 ) ;
#117 = PERSON_AND_ORGANIZATION_ROLE ( 'creator' ) ;
#118 = APPROVAL_PERSON_ORGANIZATION ( #125, #94, #162 ) ;
#119 = VERTEX_POINT ( 'NONE', #80 ) ;
#120 = CC_DESIGN_PERSON_AND_ORGANIZATION_ASSIGNMENT ( #128, #175, ( #1 ) ) ;
#121 = ADVANCED_FACE ( 'NONE', ( #161 ), #156, .T. ) ;
#122 = AXIS2_PLACEMENT_3D ( 'NONE', #70, #69, #138 ) ;
#123 = CIRCLE ( 'NONE', #122, 20.00000000000000000 ) ;
#124 = CALENDAR_DATE ( 2017, 31, 1 ) ;
#125 = PERSON_AND_ORGANIZATION ( #5, #34 ) ;
#126 = ORIENTED_EDGE ( 'NONE', *, *, #53, .F. ) ;
#127 = DIRECTION ( 'NONE',  ( 0.0000000000000000000, 0.0000000000000000000, 1.000000000000000000 ) ) ;
#128 = PERSON_AND_ORGANIZATION ( #5, #34 ) ;
#129 = CC_DESIGN_DATE_AND_TIME_ASSIGNMENT ( #56, #28, ( #109 ) ) ;
#130 = LOCAL_TIME ( 14, 32, 37.00000000000000000, #33 ) ;
#131 =( GEOMETRIC_REPRESENTATION_CONTEXT ( 3 ) GLOBAL_UNCERTAINTY_ASSIGNED_CONTEXT ( ( #23 ) ) GLOBAL_UNIT_ASSIGNED_CONTEXT ( ( #40, #102, #86 ) ) REPRESENTATION_CONTEXT ( 'NONE', 'WORKASPACE' ) );
#132 = ORIENTED_EDGE ( 'NONE', *, *, #81, .T. ) ;
#133 = APPROVAL_STATUS ( 'not_yet_approved' ) ;
#134 = PERSON_AND_ORGANIZATION ( #5, #34 ) ;
#135 = ORIENTED_EDGE ( 'NONE', *, *, #6, .F. ) ;
#136 = COORDINATED_UNIVERSAL_TIME_OFFSET ( 5, 0, .BEHIND. ) ;
#137 = DIRECTION ( 'NONE',  ( -0.0000000000000000000, -0.0000000000000000000, -1.000000000000000000 ) ) ;
#138 = DIRECTION ( 'NONE',  ( 1.000000000000000000, 0.0000000000000000000, 0.0000000000000000000 ) ) ;
#139 = APPROVAL_PERSON_ORGANIZATION ( #149, #97, #143 ) ;
#140 = ORIENTED_EDGE ( 'NONE', *, *, #53, .T. ) ;
#141 = CC_DESIGN_PERSON_AND_ORGANIZATION_ASSIGNMENT ( #167, #152, ( #174 ) ) ;
#142 = ORIENTED_EDGE ( 'NONE', *, *, #87, .F. ) ;
#143 = APPROVAL_ROLE ( '' ) ;
#144 = FACE_OUTER_BOUND ( 'NONE', #78, .T. ) ;
#145 = AXIS2_PLACEMENT_3D ( 'NONE', #24, #100, #26 ) ;
#146 = LINE ( 'NONE', #82, #63 ) ;
#147 = PRODUCT_RELATED_PRODUCT_CATEGORY ( 'detail', '', ( #38 ) ) ;
#148 = DIRECTION ( 'NONE',  ( 1.000000000000000000, 0.0000000000000000000, 0.0000000000000000000 ) ) ;
#149 = PERSON_AND_ORGANIZATION ( #5, #34 ) ;
#150 = VERTEX_POINT ( 'NONE', #9 ) ;
#151 = DIRECTION ( 'NONE',  ( 1.000000000000000000, 0.0000000000000000000, 0.0000000000000000000 ) ) ;
#152 = PERSON_AND_ORGANIZATION_ROLE ( 'creator' ) ;
#153 = ORIENTED_EDGE ( 'NONE', *, *, #81, .F. ) ;
#154 = APPLICATION_CONTEXT ( 'configuration controlled 3d designs of mechanical parts and assemblies' ) ;
#155 = PRODUCT_DEFINITION_SHAPE ( 'NONE', 'NONE',  #109 ) ;
#156 = CYLINDRICAL_SURFACE ( 'NONE', #145, 20.00000000000000000 ) ;
#157 = ADVANCED_BREP_SHAPE_REPRESENTATION ( 'Web Model 65927', ( #4, #18 ), #131 ) ;
#158 = DIRECTION ( 'NONE',  ( 1.000000000000000000, 0.0000000000000000000, 0.0000000000000000000 ) ) ;
#159 = CARTESIAN_POINT ( 'NONE',  ( 0.0000000000000000000, 0.0000000000000000000, 0.0000000000000000000 ) ) ;
#160 = DIRECTION ( 'NONE',  ( 0.0000000000000000000, 0.0000000000000000000, 1.000000000000000000 ) ) ;
#161 = FACE_OUTER_BOUND ( 'NONE', #7, .T. ) ;
#162 = APPROVAL_ROLE ( '' ) ;
#163 = COORDINATED_UNIVERSAL_TIME_OFFSET ( 5, 0, .BEHIND. ) ;
#164 = APPROVAL_STATUS ( 'not_yet_approved' ) ;
#165 = ADVANCED_FACE ( 'NONE', ( #20 ), #2, .T. ) ;
#166 = FACE_OUTER_BOUND ( 'NONE', #93, .T. ) ;
#167 = PERSON_AND_ORGANIZATION ( #5, #34 ) ;
#168 = ORIENTED_EDGE ( 'NONE', *, *, #75, .F. ) ;
#169 = DIRECTION ( 'NONE',  ( -0.0000000000000000000, -0.0000000000000000000, -1.000000000000000000 ) ) ;
#170 = DIRECTION ( 'NONE',  ( 0.0000000000000000000, 0.0000000000000000000, 1.000000000000000000 ) ) ;
#171 = ORIENTED_EDGE ( 'NONE', *, *, #61, .F. ) ;
#172 = PLANE ( 'NONE',  #101 ) ;
#173 = APPROVAL_STATUS ( 'not_yet_approved' ) ;
#174 = PRODUCT_DEFINITION_FORMATION_WITH_SPECIFIED_SOURCE ( 'ANY', '', #38, .NOT_KNOWN. ) ;
#175 = PERSON_AND_ORGANIZATION_ROLE ( 'classification_officer' ) ;
ENDSEC;
END-ISO-10303-21;
