ISO-10303-21;
HEADER;
FILE_DESCRIPTION (( 'STEP AP203' ),
    '1' );
FILE_NAME ('Web Model 11854_11854.step',
    '2018-12-27T14:15:07',
    ( '' ),
    ( '' ),
    'SwSTEP 2.0',
    'SolidWorks 2016',
    '' );
FILE_SCHEMA (( 'CONFIG_CONTROL_DESIGN' ));
ENDSEC;

DATA;
#1 = EDGE_CURVE ( 'NONE', #70, #31, #42, .T. ) ;
#2 = DIRECTION ( 'NONE',  ( -0.0000000000000000000, -0.0000000000000000000, -1.000000000000000000 ) ) ;
#3 = ORIENTED_EDGE ( 'NONE', *, *, #97, .F. ) ;
#4 =( NAMED_UNIT ( * ) SI_UNIT ( $, .STERADIAN. ) SOLID_ANGLE_UNIT ( ) );
#5 =( NAMED_UNIT ( * ) PLANE_ANGLE_UNIT ( ) SI_UNIT ( $, .RADIAN. ) );
#6 = CARTESIAN_POINT ( 'NONE',  ( 0.0000000000000000000, 0.0000000000000000000, 0.5500000000000000400 ) ) ;
#7 = AXIS2_PLACEMENT_3D ( 'NONE', #6, #154, #123 ) ;
#8 = FACE_OUTER_BOUND ( 'NONE', #15, .T. ) ;
#9 = DATE_AND_TIME ( #175, #27 ) ;
#10 = PLANE ( 'NONE',  #94 ) ;
#11 = DATE_AND_TIME ( #34, #66 ) ;
#12 = CARTESIAN_POINT ( 'NONE',  ( 0.0000000000000000000, 0.0000000000000000000, 0.5500000000000000400 ) ) ;
#13 = AXIS2_PLACEMENT_3D ( 'NONE', #140, #167, #21 ) ;
#14 = DIRECTION ( 'NONE',  ( 0.0000000000000000000, 0.0000000000000000000, 1.000000000000000000 ) ) ;
#15 = EDGE_LOOP ( 'NONE', ( #3, #112, #148, #156 ) ) ;
#16 = ADVANCED_FACE ( 'NONE', ( #25 ), #45, .T. ) ;
#17 = CC_DESIGN_PERSON_AND_ORGANIZATION_ASSIGNMENT ( #152, #76, ( #111 ) ) ;
#18 = DATE_AND_TIME ( #161, #56 ) ;
#19 = CC_DESIGN_APPROVAL ( #75, ( #81 ) ) ;
#20 = VECTOR ( 'NONE', #92, 1000.000000000000000 ) ;
#21 = DIRECTION ( 'NONE',  ( 1.000000000000000000, 0.0000000000000000000, -0.0000000000000000000 ) ) ;
#22 = SECURITY_CLASSIFICATION ( '', '', #155 ) ;
#23 = DIRECTION ( 'NONE',  ( -1.000000000000000000, 0.0000000000000000000, 0.0000000000000000000 ) ) ;
#24 = DIRECTION ( 'NONE',  ( 0.0000000000000000000, 0.0000000000000000000, 1.000000000000000000 ) ) ;
#25 = FACE_OUTER_BOUND ( 'NONE', #114, .T. ) ;
#26 = DIRECTION ( 'NONE',  ( 1.000000000000000000, 0.0000000000000000000, 0.0000000000000000000 ) ) ;
#27 = LOCAL_TIME ( 9, 15, 7.000000000000000000, #71 ) ;
#28 = DIRECTION ( 'NONE',  ( 1.000000000000000000, 0.0000000000000000000, 0.0000000000000000000 ) ) ;
#29 = CC_DESIGN_PERSON_AND_ORGANIZATION_ASSIGNMENT ( #96, #157, ( #81 ) ) ;
#30 = APPROVAL_ROLE ( '' ) ;
#31 = VERTEX_POINT ( 'NONE', #40 ) ;
#32 = ADVANCED_FACE ( 'NONE', ( #33 ), #10, .T. ) ;
#33 = FACE_OUTER_BOUND ( 'NONE', #142, .T. ) ;
#34 = CALENDAR_DATE ( 2018, 27, 12 ) ;
#35 = CC_DESIGN_PERSON_AND_ORGANIZATION_ASSIGNMENT ( #127, #146, ( #22 ) ) ;
#36 = CC_DESIGN_PERSON_AND_ORGANIZATION_ASSIGNMENT ( #171, #132, ( #81 ) ) ;
#37 = DIRECTION ( 'NONE',  ( 1.000000000000000000, 0.0000000000000000000, -0.0000000000000000000 ) ) ;
#38 = LOCAL_TIME ( 9, 15, 7.000000000000000000, #46 ) ;
#39 = CARTESIAN_POINT ( 'NONE',  ( 0.0000000000000000000, 0.0000000000000000000, -0.5500000000000000400 ) ) ;
#40 = CARTESIAN_POINT ( 'NONE',  ( 37.50000000000000700, 4.592425496802575200E-015, -0.5500000000000000400 ) ) ;
#41 = CARTESIAN_POINT ( 'NONE',  ( 0.0000000000000000000, 0.0000000000000000000, -0.5500000000000000400 ) ) ;
#42 = LINE ( 'NONE', #121, #135 ) ;
#43 = CC_DESIGN_PERSON_AND_ORGANIZATION_ASSIGNMENT ( #165, #129, ( #128 ) ) ;
#44 = FACE_OUTER_BOUND ( 'NONE', #162, .T. ) ;
#45 = CYLINDRICAL_SURFACE ( 'NONE', #125, 37.50000000000000700 ) ;
#46 = COORDINATED_UNIVERSAL_TIME_OFFSET ( 5, 0, .BEHIND. ) ;
#47 = PRODUCT_DEFINITION_SHAPE ( 'NONE', 'NONE',  #111 ) ;
#48 = CC_DESIGN_DATE_AND_TIME_ASSIGNMENT ( #131, #109, ( #22 ) ) ;
#49 = DATE_AND_TIME ( #57, #38 ) ;
#50 = CARTESIAN_POINT ( 'NONE',  ( -37.50000000000000700, 0.0000000000000000000, 0.5500000000000000400 ) ) ;
#51 = SHAPE_DEFINITION_REPRESENTATION ( #47, #55 ) ;
#52 = ORIENTED_EDGE ( 'NONE', *, *, #80, .F. ) ;
#53 = PERSON_AND_ORGANIZATION ( #58, #134 ) ;
#54 = APPROVAL ( #86, 'UNSPECIFIED' ) ;
#55 = ADVANCED_BREP_SHAPE_REPRESENTATION ( 'Web Model 11854_11854', ( #137, #64 ), #174 ) ;
#56 = LOCAL_TIME ( 9, 15, 7.000000000000000000, #63 ) ;
#57 = CALENDAR_DATE ( 2018, 27, 12 ) ;
#58 = PERSON ( 'UNSPECIFIED', 'UNSPECIFIED', 'UNSPECIFIED', ('UNSPECIFIED'), ('UNSPECIFIED'), ('UNSPECIFIED') ) ;
#59 = APPLICATION_PROTOCOL_DEFINITION ( 'international standard', 'config_control_design', 1994, #107 ) ;
#60 = ORIENTED_EDGE ( 'NONE', *, *, #1, .F. ) ;
#61 = DIRECTION ( 'NONE',  ( 1.000000000000000000, 0.0000000000000000000, 0.0000000000000000000 ) ) ;
#62 = DATE_TIME_ROLE ( 'creation_date' ) ;
#63 = COORDINATED_UNIVERSAL_TIME_OFFSET ( 5, 0, .BEHIND. ) ;
#64 = AXIS2_PLACEMENT_3D ( 'NONE', #144, #126, #61 ) ;
#65 = ORIENTED_EDGE ( 'NONE', *, *, #163, .F. ) ;
#66 = LOCAL_TIME ( 9, 15, 7.000000000000000000, #120 ) ;
#67 = CIRCLE ( 'NONE', #108, 37.50000000000000700 ) ;
#68 = APPROVAL_DATE_TIME ( #18, #136 ) ;
#69 = DIRECTION ( 'NONE',  ( -0.0000000000000000000, -0.0000000000000000000, -1.000000000000000000 ) ) ;
#70 = VERTEX_POINT ( 'NONE', #138 ) ;
#71 = COORDINATED_UNIVERSAL_TIME_OFFSET ( 5, 0, .BEHIND. ) ;
#72 = DIRECTION ( 'NONE',  ( 0.0000000000000000000, 0.0000000000000000000, 1.000000000000000000 ) ) ;
#73 = ORIENTED_EDGE ( 'NONE', *, *, #166, .T. ) ;
#74 = DIRECTION ( 'NONE',  ( -1.000000000000000000, 0.0000000000000000000, 0.0000000000000000000 ) ) ;
#75 = APPROVAL ( #145, 'UNSPECIFIED' ) ;
#76 = PERSON_AND_ORGANIZATION_ROLE ( 'creator' ) ;
#77 = ORIENTED_EDGE ( 'NONE', *, *, #98, .T. ) ;
#78 = ADVANCED_FACE ( 'NONE', ( #44 ), #116, .F. ) ;
#79 = APPROVAL_STATUS ( 'not_yet_approved' ) ;
#80 = EDGE_CURVE ( 'NONE', #31, #95, #106, .T. ) ;
#81 = PRODUCT_DEFINITION_FORMATION_WITH_SPECIFIED_SOURCE ( 'ANY', '', #128, .NOT_KNOWN. ) ;
#82 = CC_DESIGN_SECURITY_CLASSIFICATION ( #22, ( #81 ) ) ;
#83 = COORDINATED_UNIVERSAL_TIME_OFFSET ( 5, 0, .BEHIND. ) ;
#84 = AXIS2_PLACEMENT_3D ( 'NONE', #39, #14, #28 ) ;
#85 = VERTEX_POINT ( 'NONE', #50 ) ;
#86 = APPROVAL_STATUS ( 'not_yet_approved' ) ;
#87 = APPROVAL_PERSON_ORGANIZATION ( #89, #136, #30 ) ;
#88 = APPROVAL_PERSON_ORGANIZATION ( #141, #54, #110 ) ;
#89 = PERSON_AND_ORGANIZATION ( #58, #134 ) ;
#90 = CARTESIAN_POINT ( 'NONE',  ( 0.0000000000000000000, 0.0000000000000000000, 0.5500000000000000400 ) ) ;
#91 = CIRCLE ( 'NONE', #118, 37.50000000000000700 ) ;
#92 = DIRECTION ( 'NONE',  ( -0.0000000000000000000, -0.0000000000000000000, -1.000000000000000000 ) ) ;
#93 = APPROVAL_PERSON_ORGANIZATION ( #53, #75, #172 ) ;
#94 = AXIS2_PLACEMENT_3D ( 'NONE', #90, #100, #37 ) ;
#95 = VERTEX_POINT ( 'NONE', #150 ) ;
#96 = PERSON_AND_ORGANIZATION ( #58, #134 ) ;
#97 = EDGE_CURVE ( 'NONE', #70, #85, #151, .T. ) ;
#98 = EDGE_CURVE ( 'NONE', #85, #95, #149, .T. ) ;
#99 = CLOSED_SHELL ( 'NONE', ( #159, #16, #32, #78 ) ) ;
#100 = DIRECTION ( 'NONE',  ( 0.0000000000000000000, 0.0000000000000000000, 1.000000000000000000 ) ) ;
#101 = PRODUCT_RELATED_PRODUCT_CATEGORY ( 'detail', '', ( #128 ) ) ;
#102 = ORIENTED_EDGE ( 'NONE', *, *, #166, .F. ) ;
#103 = CARTESIAN_POINT ( 'NONE',  ( 0.0000000000000000000, 0.0000000000000000000, 0.5500000000000000400 ) ) ;
#104 = DIRECTION ( 'NONE',  ( 1.000000000000000000, 0.0000000000000000000, 0.0000000000000000000 ) ) ;
#105 = CYLINDRICAL_SURFACE ( 'NONE', #133, 37.50000000000000700 ) ;
#106 = CIRCLE ( 'NONE', #84, 37.50000000000000700 ) ;
#107 = APPLICATION_CONTEXT ( 'configuration controlled 3d designs of mechanical parts and assemblies' ) ;
#108 = AXIS2_PLACEMENT_3D ( 'NONE', #12, #24, #26 ) ;
#109 = DATE_TIME_ROLE ( 'classification_date' ) ;
#110 = APPROVAL_ROLE ( '' ) ;
#111 = PRODUCT_DEFINITION ( 'UNKNOWN', '', #81, #164 ) ;
#112 = ORIENTED_EDGE ( 'NONE', *, *, #1, .T. ) ;
#113 = LOCAL_TIME ( 9, 15, 7.000000000000000000, #83 ) ;
#114 = EDGE_LOOP ( 'NONE', ( #60, #102, #77, #168 ) ) ;
#115 = APPROVAL_DATE_TIME ( #49, #75 ) ;
#116 = PLANE ( 'NONE',  #13 ) ;
#117 = UNCERTAINTY_MEASURE_WITH_UNIT (LENGTH_MEASURE( 1.000000000000000100E-005 ), #170, 'distance_accuracy_value', 'NONE');
#118 = AXIS2_PLACEMENT_3D ( 'NONE', #41, #72, #104 ) ;
#119 = CARTESIAN_POINT ( 'NONE',  ( 0.0000000000000000000, 0.0000000000000000000, 0.5500000000000000400 ) ) ;
#120 = COORDINATED_UNIVERSAL_TIME_OFFSET ( 5, 0, .BEHIND. ) ;
#121 = CARTESIAN_POINT ( 'NONE',  ( 37.50000000000000700, 4.592425496802575200E-015, 0.5500000000000000400 ) ) ;
#122 = CC_DESIGN_DATE_AND_TIME_ASSIGNMENT ( #11, #62, ( #111 ) ) ;
#123 = DIRECTION ( 'NONE',  ( 1.000000000000000000, 0.0000000000000000000, 0.0000000000000000000 ) ) ;
#124 = ORIENTED_EDGE ( 'NONE', *, *, #97, .T. ) ;
#125 = AXIS2_PLACEMENT_3D ( 'NONE', #119, #69, #23 ) ;
#126 = DIRECTION ( 'NONE',  ( 0.0000000000000000000, 0.0000000000000000000, 1.000000000000000000 ) ) ;
#127 = PERSON_AND_ORGANIZATION ( #58, #134 ) ;
#128 = PRODUCT ( 'Web Model 11854_11854', 'Web Model 11854_11854', '', ( #130 ) ) ;
#129 = PERSON_AND_ORGANIZATION_ROLE ( 'design_owner' ) ;
#130 = MECHANICAL_CONTEXT ( 'NONE', #147, 'mechanical' ) ;
#131 = DATE_AND_TIME ( #158, #113 ) ;
#132 = PERSON_AND_ORGANIZATION_ROLE ( 'creator' ) ;
#133 = AXIS2_PLACEMENT_3D ( 'NONE', #103, #169, #74 ) ;
#134 = ORGANIZATION ( 'UNSPECIFIED', 'UNSPECIFIED', '' ) ;
#135 = VECTOR ( 'NONE', #2, 1000.000000000000000 ) ;
#136 = APPROVAL ( #79, 'UNSPECIFIED' ) ;
#137 = MANIFOLD_SOLID_BREP ( 'Boss-Extrude1', #99 ) ;
#138 = CARTESIAN_POINT ( 'NONE',  ( 37.50000000000000700, 4.592425496802575200E-015, 0.5500000000000000400 ) ) ;
#139 = CC_DESIGN_APPROVAL ( #136, ( #111 ) ) ;
#140 = CARTESIAN_POINT ( 'NONE',  ( 0.0000000000000000000, 0.0000000000000000000, -0.5500000000000000400 ) ) ;
#141 = PERSON_AND_ORGANIZATION ( #58, #134 ) ;
#142 = EDGE_LOOP ( 'NONE', ( #73, #124 ) ) ;
#143 = APPROVAL_DATE_TIME ( #9, #54 ) ;
#144 = CARTESIAN_POINT ( 'NONE',  ( 0.0000000000000000000, 0.0000000000000000000, 0.0000000000000000000 ) ) ;
#145 = APPROVAL_STATUS ( 'not_yet_approved' ) ;
#146 = PERSON_AND_ORGANIZATION_ROLE ( 'classification_officer' ) ;
#147 = APPLICATION_CONTEXT ( 'configuration controlled 3d designs of mechanical parts and assemblies' ) ;
#148 = ORIENTED_EDGE ( 'NONE', *, *, #80, .T. ) ;
#149 = LINE ( 'NONE', #153, #20 ) ;
#150 = CARTESIAN_POINT ( 'NONE',  ( -37.50000000000000700, 0.0000000000000000000, -0.5500000000000000400 ) ) ;
#151 = CIRCLE ( 'NONE', #7, 37.50000000000000700 ) ;
#152 = PERSON_AND_ORGANIZATION ( #58, #134 ) ;
#153 = CARTESIAN_POINT ( 'NONE',  ( -37.50000000000000700, 0.0000000000000000000, 0.5500000000000000400 ) ) ;
#154 = DIRECTION ( 'NONE',  ( 0.0000000000000000000, 0.0000000000000000000, 1.000000000000000000 ) ) ;
#155 = SECURITY_CLASSIFICATION_LEVEL ( 'unclassified' ) ;
#156 = ORIENTED_EDGE ( 'NONE', *, *, #98, .F. ) ;
#157 = PERSON_AND_ORGANIZATION_ROLE ( 'design_supplier' ) ;
#158 = CALENDAR_DATE ( 2018, 27, 12 ) ;
#159 = ADVANCED_FACE ( 'NONE', ( #8 ), #105, .T. ) ;
#160 = CC_DESIGN_APPROVAL ( #54, ( #22 ) ) ;
#161 = CALENDAR_DATE ( 2018, 27, 12 ) ;
#162 = EDGE_LOOP ( 'NONE', ( #65, #52 ) ) ;
#163 = EDGE_CURVE ( 'NONE', #95, #31, #91, .T. ) ;
#164 = DESIGN_CONTEXT ( 'detailed design', #107, 'design' ) ;
#165 = PERSON_AND_ORGANIZATION ( #58, #134 ) ;
#166 = EDGE_CURVE ( 'NONE', #85, #70, #67, .T. ) ;
#167 = DIRECTION ( 'NONE',  ( 0.0000000000000000000, 0.0000000000000000000, 1.000000000000000000 ) ) ;
#168 = ORIENTED_EDGE ( 'NONE', *, *, #163, .T. ) ;
#169 = DIRECTION ( 'NONE',  ( -0.0000000000000000000, -0.0000000000000000000, -1.000000000000000000 ) ) ;
#170 =( LENGTH_UNIT ( ) NAMED_UNIT ( * ) SI_UNIT ( .MILLI., .METRE. ) );
#171 = PERSON_AND_ORGANIZATION ( #58, #134 ) ;
#172 = APPROVAL_ROLE ( '' ) ;
#173 = APPLICATION_PROTOCOL_DEFINITION ( 'international standard', 'config_control_design', 1994, #147 ) ;
#174 =( GEOMETRIC_REPRESENTATION_CONTEXT ( 3 ) GLOBAL_UNCERTAINTY_ASSIGNED_CONTEXT ( ( #117 ) ) GLOBAL_UNIT_ASSIGNED_CONTEXT ( ( #170, #5, #4 ) ) REPRESENTATION_CONTEXT ( 'NONE', 'WORKASPACE' ) );
#175 = CALENDAR_DATE ( 2018, 27, 12 ) ;
ENDSEC;
END-ISO-10303-21;
