ISO-10303-21;
HEADER;
FILE_DESCRIPTION (( 'STEP AP203' ),
    '1' );
FILE_NAME ('Web Model 47189_47191.step',
    '2017-07-13T14:27:40',
    ( '' ),
    ( '' ),
    'SwSTEP 2.0',
    'SolidWorks 2016',
    '' );
FILE_SCHEMA (( 'CONFIG_CONTROL_DESIGN' ));
ENDSEC;

DATA;
#1 = LOCAL_TIME ( 10, 27, 40.00000000000000000, #74 ) ;
#2 = ORIENTED_EDGE ( 'NONE', *, *, #105, .F. ) ;
#3 = EDGE_CURVE ( 'NONE', #152, #352, #246, .T. ) ;
#4 = CARTESIAN_POINT ( 'NONE',  ( -10.00000000000000200, 9.999999999999998200, 10.00000000000000000 ) ) ;
#5 = VERTEX_POINT ( 'NONE', #314 ) ;
#6 = DIRECTION ( 'NONE',  ( 0.0000000000000000000, -0.0000000000000000000, 1.000000000000000000 ) ) ;
#7 = CARTESIAN_POINT ( 'NONE',  ( 9.999999999999998200, 9.999999999999998200, -10.00000000000000000 ) ) ;
#8 = DIRECTION ( 'NONE',  ( 1.000000000000000000, 0.0000000000000000000, 0.0000000000000000000 ) ) ;
#9 = ORIENTED_EDGE ( 'NONE', *, *, #24, .F. ) ;
#10 = SECURITY_CLASSIFICATION_LEVEL ( 'unclassified' ) ;
#11 = ORGANIZATION ( 'UNSPECIFIED', 'UNSPECIFIED', '' ) ;
#12 = COORDINATED_UNIVERSAL_TIME_OFFSET ( 5, 0, .BEHIND. ) ;
#13 = ORIENTED_EDGE ( 'NONE', *, *, #125, .F. ) ;
#14 = DIRECTION ( 'NONE',  ( 1.000000000000000000, 0.0000000000000000000, 0.0000000000000000000 ) ) ;
#15 = CARTESIAN_POINT ( 'NONE',  ( -10.00000000000000200, 9.999999999999998200, 10.00000000000000000 ) ) ;
#16 = AXIS2_PLACEMENT_3D ( 'NONE', #295, #323, #154 ) ;
#17 = PLANE ( 'NONE',  #49 ) ;
#18 = CARTESIAN_POINT ( 'NONE',  ( 0.0000000000000000000, 0.0000000000000000000, 10.00000000000000000 ) ) ;
#19 = CARTESIAN_POINT ( 'NONE',  ( -9.999999999999998200, -10.00000000000000200, -10.00000000000000000 ) ) ;
#20 = CARTESIAN_POINT ( 'NONE',  ( 30.00000000000000700, -10.00000000000000200, -10.00000000000000000 ) ) ;
#21 = ADVANCED_FACE ( 'NONE', ( #102 ), #143, .F. ) ;
#22 = EDGE_CURVE ( 'NONE', #337, #255, #313, .T. ) ;
#23 = FACE_OUTER_BOUND ( 'NONE', #264, .T. ) ;
#24 = EDGE_CURVE ( 'NONE', #56, #142, #322, .T. ) ;
#25 = ORIENTED_EDGE ( 'NONE', *, *, #76, .F. ) ;
#26 = VECTOR ( 'NONE', #103, 1000.000000000000000 ) ;
#27 = LINE ( 'NONE', #184, #39 ) ;
#28 = MANIFOLD_SOLID_BREP ( 'Boss-Extrude1', #81 ) ;
#29 = DIRECTION ( 'NONE',  ( -0.0000000000000000000, -0.0000000000000000000, -1.000000000000000000 ) ) ;
#30 = AXIS2_PLACEMENT_3D ( 'NONE', #117, #146, #342 ) ;
#31 = PERSON_AND_ORGANIZATION_ROLE ( 'design_owner' ) ;
#32 = SHAPE_DEFINITION_REPRESENTATION ( #79, #183 ) ;
#33 = LINE ( 'NONE', #213, #26 ) ;
#34 = VECTOR ( 'NONE', #251, 1000.000000000000000 ) ;
#35 = EDGE_CURVE ( 'NONE', #255, #270, #33, .T. ) ;
#36 = ORIENTED_EDGE ( 'NONE', *, *, #125, .T. ) ;
#37 = CARTESIAN_POINT ( 'NONE',  ( -10.00000000000000200, 9.999999999999998200, 10.00000000000000000 ) ) ;
#38 = DATE_AND_TIME ( #110, #177 ) ;
#39 = VECTOR ( 'NONE', #29, 1000.000000000000000 ) ;
#40 = DIRECTION ( 'NONE',  ( 1.000000000000000000, 1.734723475976807100E-016, -0.0000000000000000000 ) ) ;
#41 = VECTOR ( 'NONE', #89, 1000.000000000000000 ) ;
#42 = CARTESIAN_POINT ( 'NONE',  ( 30.00000000000000700, -10.00000000000000200, 10.00000000000000000 ) ) ;
#43 = CARTESIAN_POINT ( 'NONE',  ( -9.999999999999998200, -10.00000000000000200, 10.00000000000000000 ) ) ;
#44 = PLANE ( 'NONE',  #273 ) ;
#45 = ADVANCED_FACE ( 'NONE', ( #95 ), #269, .F. ) ;
#46 = VECTOR ( 'NONE', #347, 1000.000000000000000 ) ;
#47 = ORIENTED_EDGE ( 'NONE', *, *, #3, .F. ) ;
#48 = PERSON_AND_ORGANIZATION ( #210, #11 ) ;
#49 = AXIS2_PLACEMENT_3D ( 'NONE', #200, #40, #231 ) ;
#50 = ORIENTED_EDGE ( 'NONE', *, *, #76, .T. ) ;
#51 = DIRECTION ( 'NONE',  ( -0.0000000000000000000, -0.0000000000000000000, -1.000000000000000000 ) ) ;
#52 = LINE ( 'NONE', #92, #46 ) ;
#53 = PERSON_AND_ORGANIZATION ( #210, #11 ) ;
#54 = EDGE_CURVE ( 'NONE', #140, #152, #306, .T. ) ;
#55 = CARTESIAN_POINT ( 'NONE',  ( 10.00000000000000200, -10.00000000000000200, 10.00000000000000000 ) ) ;
#56 = VERTEX_POINT ( 'NONE', #301 ) ;
#57 = PLANE ( 'NONE',  #237 ) ;
#58 = PERSON_AND_ORGANIZATION ( #210, #11 ) ;
#59 = APPLICATION_PROTOCOL_DEFINITION ( 'international standard', 'config_control_design', 1994, #221 ) ;
#60 = EDGE_LOOP ( 'NONE', ( #78, #195, #201, #294 ) ) ;
#61 = VERTEX_POINT ( 'NONE', #159 ) ;
#62 = VECTOR ( 'NONE', #108, 1000.000000000000000 ) ;
#63 = PERSON_AND_ORGANIZATION ( #210, #11 ) ;
#64 = VERTEX_POINT ( 'NONE', #7 ) ;
#65 = AXIS2_PLACEMENT_3D ( 'NONE', #18, #257, #93 ) ;
#66 = CALENDAR_DATE ( 2017, 13, 7 ) ;
#67 = CARTESIAN_POINT ( 'NONE',  ( -10.00000000000000200, 9.999999999999998200, -10.00000000000000000 ) ) ;
#68 = ORIENTED_EDGE ( 'NONE', *, *, #224, .F. ) ;
#69 = PLANE ( 'NONE',  #65 ) ;
#70 = ORIENTED_EDGE ( 'NONE', *, *, #224, .T. ) ;
#71 = VECTOR ( 'NONE', #135, 1000.000000000000000 ) ;
#72 = CARTESIAN_POINT ( 'NONE',  ( 0.0000000000000000000, 0.0000000000000000000, 10.00000000000000000 ) ) ;
#73 = CARTESIAN_POINT ( 'NONE',  ( -10.00000000000000200, 9.999999999999998200, -10.00000000000000000 ) ) ;
#74 = COORDINATED_UNIVERSAL_TIME_OFFSET ( 5, 0, .BEHIND. ) ;
#75 = ORIENTED_EDGE ( 'NONE', *, *, #22, .T. ) ;
#76 = EDGE_CURVE ( 'NONE', #226, #191, #233, .T. ) ;
#77 = EDGE_LOOP ( 'NONE', ( #336, #9, #126, #130 ) ) ;
#78 = ORIENTED_EDGE ( 'NONE', *, *, #297, .T. ) ;
#79 = PRODUCT_DEFINITION_SHAPE ( 'NONE', 'NONE',  #167 ) ;
#80 = FACE_OUTER_BOUND ( 'NONE', #179, .T. ) ;
#81 = CLOSED_SHELL ( 'NONE', ( #292, #45, #97, #149, #207 ) ) ;
#82 = DIRECTION ( 'NONE',  ( 0.7071067811865475700, -0.7071067811865474600, 0.0000000000000000000 ) ) ;
#83 =( GEOMETRIC_REPRESENTATION_CONTEXT ( 3 ) GLOBAL_UNCERTAINTY_ASSIGNED_CONTEXT ( ( #248 ) ) GLOBAL_UNIT_ASSIGNED_CONTEXT ( ( #218, #85, #274 ) ) REPRESENTATION_CONTEXT ( 'NONE', 'WORKASPACE' ) );
#84 = ORIENTED_EDGE ( 'NONE', *, *, #328, .T. ) ;
#85 =( NAMED_UNIT ( * ) PLANE_ANGLE_UNIT ( ) SI_UNIT ( $, .RADIAN. ) );
#86 = APPROVAL_ROLE ( '' ) ;
#87 = EDGE_CURVE ( 'NONE', #337, #152, #131, .T. ) ;
#88 = VECTOR ( 'NONE', #230, 1000.000000000000000 ) ;
#89 = DIRECTION ( 'NONE',  ( 1.000000000000000000, 0.0000000000000000000, 0.0000000000000000000 ) ) ;
#90 = EDGE_LOOP ( 'NONE', ( #278, #208, #341, #25 ) ) ;
#91 = PLANE ( 'NONE',  #350 ) ;
#92 = CARTESIAN_POINT ( 'NONE',  ( 10.00000000000000200, -10.00000000000000200, -10.00000000000000000 ) ) ;
#93 = DIRECTION ( 'NONE',  ( 1.000000000000000000, 0.0000000000000000000, 0.0000000000000000000 ) ) ;
#94 = DIRECTION ( 'NONE',  ( -1.000000000000000000, 0.0000000000000000000, -0.0000000000000000000 ) ) ;
#95 = FACE_OUTER_BOUND ( 'NONE', #353, .T. ) ;
#96 = DIRECTION ( 'NONE',  ( -1.000000000000000000, 0.0000000000000000000, -0.0000000000000000000 ) ) ;
#97 = ADVANCED_FACE ( 'NONE', ( #271 ), #17, .F. ) ;
#98 = LINE ( 'NONE', #67, #34 ) ;
#99 = AXIS2_PLACEMENT_3D ( 'NONE', #55, #158, #6 ) ;
#100 = APPROVAL_ROLE ( '' ) ;
#101 = VECTOR ( 'NONE', #243, 1000.000000000000000 ) ;
#102 = FACE_OUTER_BOUND ( 'NONE', #249, .T. ) ;
#103 = DIRECTION ( 'NONE',  ( -0.7071067811865475700, 0.7071067811865474600, 0.0000000000000000000 ) ) ;
#104 = LINE ( 'NONE', #250, #315 ) ;
#105 = EDGE_CURVE ( 'NONE', #212, #61, #192, .T. ) ;
#106 = ORIENTED_EDGE ( 'NONE', *, *, #165, .F. ) ;
#107 = CARTESIAN_POINT ( 'NONE',  ( -9.999999999999998200, -10.00000000000000200, 10.00000000000000000 ) ) ;
#108 = DIRECTION ( 'NONE',  ( -0.0000000000000000000, -0.0000000000000000000, -1.000000000000000000 ) ) ;
#109 = DATE_TIME_ROLE ( 'creation_date' ) ;
#110 = CALENDAR_DATE ( 2017, 13, 7 ) ;
#111 = ORIENTED_EDGE ( 'NONE', *, *, #263, .F. ) ;
#112 = FACE_OUTER_BOUND ( 'NONE', #90, .T. ) ;
#113 = ORIENTED_EDGE ( 'NONE', *, *, #35, .F. ) ;
#114 = CARTESIAN_POINT ( 'NONE',  ( -10.00000000000000200, 9.999999999999998200, 10.00000000000000000 ) ) ;
#115 = DIRECTION ( 'NONE',  ( 0.0000000000000000000, 1.000000000000000000, 0.0000000000000000000 ) ) ;
#116 = DATE_AND_TIME ( #189, #265 ) ;
#117 = CARTESIAN_POINT ( 'NONE',  ( -9.999999999999998200, -10.00000000000000200, 10.00000000000000000 ) ) ;
#118 = ORIENTED_EDGE ( 'NONE', *, *, #262, .F. ) ;
#119 = DIRECTION ( 'NONE',  ( 1.000000000000000000, 0.0000000000000000000, 0.0000000000000000000 ) ) ;
#120 = CARTESIAN_POINT ( 'NONE',  ( -9.999999999999998200, -10.00000000000000200, -10.00000000000000000 ) ) ;
#121 = CARTESIAN_POINT ( 'NONE',  ( 30.00000000000000700, -10.00000000000000200, -10.00000000000000000 ) ) ;
#122 = FACE_OUTER_BOUND ( 'NONE', #60, .T. ) ;
#123 = ADVANCED_FACE ( 'NONE', ( #122 ), #256, .F. ) ;
#124 = DATE_AND_TIME ( #193, #272 ) ;
#125 = EDGE_CURVE ( 'NONE', #61, #191, #333, .T. ) ;
#126 = ORIENTED_EDGE ( 'NONE', *, *, #263, .T. ) ;
#127 = PERSON_AND_ORGANIZATION ( #210, #11 ) ;
#128 = SECURITY_CLASSIFICATION ( '', '', #10 ) ;
#129 = ORIENTED_EDGE ( 'NONE', *, *, #282, .T. ) ;
#130 = ORIENTED_EDGE ( 'NONE', *, *, #209, .T. ) ;
#131 = LINE ( 'NONE', #219, #62 ) ;
#132 = APPROVAL_DATE_TIME ( #206, #188 ) ;
#133 = ORIENTED_EDGE ( 'NONE', *, *, #317, .F. ) ;
#134 = CARTESIAN_POINT ( 'NONE',  ( 10.00000000000000200, -10.00000000000000200, -10.00000000000000000 ) ) ;
#135 = DIRECTION ( 'NONE',  ( 1.734723475976807100E-016, -1.000000000000000000, 0.0000000000000000000 ) ) ;
#136 = AXIS2_PLACEMENT_3D ( 'NONE', #185, #160, #8 ) ;
#137 = ORIENTED_EDGE ( 'NONE', *, *, #54, .F. ) ;
#138 = APPROVAL_ROLE ( '' ) ;
#139 = APPROVAL_PERSON_ORGANIZATION ( #215, #188, #86 ) ;
#140 = VERTEX_POINT ( 'NONE', #203 ) ;
#141 = PLANE ( 'NONE',  #308 ) ;
#142 = VERTEX_POINT ( 'NONE', #73 ) ;
#143 = PLANE ( 'NONE',  #331 ) ;
#144 = PLANE ( 'NONE',  #30 ) ;
#145 = CC_DESIGN_PERSON_AND_ORGANIZATION_ASSIGNMENT ( #58, #190, ( #128 ) ) ;
#146 = DIRECTION ( 'NONE',  ( 0.0000000000000000000, 1.000000000000000000, 0.0000000000000000000 ) ) ;
#147 = DIRECTION ( 'NONE',  ( 0.7071067811865474600, 0.7071067811865475700, -0.0000000000000000000 ) ) ;
#148 = DIRECTION ( 'NONE',  ( -0.0000000000000000000, -0.0000000000000000000, -1.000000000000000000 ) ) ;
#149 = ADVANCED_FACE ( 'NONE', ( #202 ), #57, .F. ) ;
#150 = CARTESIAN_POINT ( 'NONE',  ( 10.00000000000000200, -10.00000000000000200, 10.00000000000000000 ) ) ;
#151 = LINE ( 'NONE', #168, #225 ) ;
#152 = VERTEX_POINT ( 'NONE', #19 ) ;
#153 = CC_DESIGN_PERSON_AND_ORGANIZATION_ASSIGNMENT ( #291, #31, ( #176 ) ) ;
#154 = DIRECTION ( 'NONE',  ( 0.7071067811865475700, -0.7071067811865474600, 0.0000000000000000000 ) ) ;
#155 = LINE ( 'NONE', #254, #298 ) ;
#156 = CARTESIAN_POINT ( 'NONE',  ( -10.00000000000000200, 9.999999999999998200, 10.00000000000000000 ) ) ;
#157 = EDGE_LOOP ( 'NONE', ( #75, #198, #305 ) ) ;
#158 = DIRECTION ( 'NONE',  ( 0.0000000000000000000, 1.000000000000000000, 0.0000000000000000000 ) ) ;
#159 = CARTESIAN_POINT ( 'NONE',  ( 30.00000000000000700, -10.00000000000000200, 10.00000000000000000 ) ) ;
#160 = DIRECTION ( 'NONE',  ( 0.0000000000000000000, 0.0000000000000000000, 1.000000000000000000 ) ) ;
#161 = PERSON_AND_ORGANIZATION_ROLE ( 'design_supplier' ) ;
#162 = CC_DESIGN_DATE_AND_TIME_ASSIGNMENT ( #116, #289, ( #128 ) ) ;
#163 = VECTOR ( 'NONE', #51, 1000.000000000000000 ) ;
#164 = VECTOR ( 'NONE', #197, 1000.000000000000000 ) ;
#165 = EDGE_CURVE ( 'NONE', #352, #140, #52, .T. ) ;
#166 = DIRECTION ( 'NONE',  ( -0.0000000000000000000, 0.0000000000000000000, 1.000000000000000000 ) ) ;
#167 = PRODUCT_DEFINITION ( 'UNKNOWN', '', #267, #296 ) ;
#168 = CARTESIAN_POINT ( 'NONE',  ( -10.00000000000000200, 9.999999999999998200, -10.00000000000000000 ) ) ;
#169 = LINE ( 'NONE', #156, #101 ) ;
#170 = VECTOR ( 'NONE', #290, 1000.000000000000000 ) ;
#171 = CARTESIAN_POINT ( 'NONE',  ( -10.00000000000000200, 9.999999999999998200, 10.00000000000000000 ) ) ;
#172 = DIRECTION ( 'NONE',  ( -0.7071067811865476800, 0.7071067811865474600, 0.0000000000000000000 ) ) ;
#173 = VECTOR ( 'NONE', #148, 1000.000000000000000 ) ;
#174 = ORIENTED_EDGE ( 'NONE', *, *, #328, .F. ) ;
#175 = CLOSED_SHELL ( 'NONE', ( #123, #349, #21, #261, #316, #235 ) ) ;
#176 = PRODUCT ( 'Web Model 47189_47191', 'Web Model 47189_47191', '', ( #187 ) ) ;
#177 = LOCAL_TIME ( 10, 27, 40.00000000000000000, #252 ) ;
#178 = APPROVAL ( #266, 'UNSPECIFIED' ) ;
#179 = EDGE_LOOP ( 'NONE', ( #220, #332, #70, #111 ) ) ;
#180 = VECTOR ( 'NONE', #172, 1000.000000000000000 ) ;
#181 = EDGE_CURVE ( 'NONE', #191, #64, #259, .T. ) ;
#182 = EDGE_LOOP ( 'NONE', ( #47, #137, #106 ) ) ;
#183 = ADVANCED_BREP_SHAPE_REPRESENTATION ( 'Web Model 47189_47191', ( #28, #318, #136 ), #83 ) ;
#184 = CARTESIAN_POINT ( 'NONE',  ( 10.00000000000000200, -10.00000000000000200, 10.00000000000000000 ) ) ;
#185 = CARTESIAN_POINT ( 'NONE',  ( 0.0000000000000000000, 0.0000000000000000000, 0.0000000000000000000 ) ) ;
#186 = DIRECTION ( 'NONE',  ( 1.000000000000000000, 0.0000000000000000000, 0.0000000000000000000 ) ) ;
#187 = MECHANICAL_CONTEXT ( 'NONE', #327, 'mechanical' ) ;
#188 = APPROVAL ( #244, 'UNSPECIFIED' ) ;
#189 = CALENDAR_DATE ( 2017, 13, 7 ) ;
#190 = PERSON_AND_ORGANIZATION_ROLE ( 'classification_officer' ) ;
#191 = VERTEX_POINT ( 'NONE', #20 ) ;
#192 = LINE ( 'NONE', #288, #345 ) ;
#193 = CALENDAR_DATE ( 2017, 13, 7 ) ;
#194 = AXIS2_PLACEMENT_3D ( 'NONE', #312, #147, #343 ) ;
#195 = ORIENTED_EDGE ( 'NONE', *, *, #282, .F. ) ;
#196 = PERSON_AND_ORGANIZATION ( #210, #11 ) ;
#197 = DIRECTION ( 'NONE',  ( 1.734723475976807100E-016, -1.000000000000000000, 0.0000000000000000000 ) ) ;
#198 = ORIENTED_EDGE ( 'NONE', *, *, #35, .T. ) ;
#199 = CC_DESIGN_APPROVAL ( #178, ( #128 ) ) ;
#200 = CARTESIAN_POINT ( 'NONE',  ( -10.00000000000000200, 9.999999999999998200, 10.00000000000000000 ) ) ;
#201 = ORIENTED_EDGE ( 'NONE', *, *, #335, .F. ) ;
#202 = FACE_OUTER_BOUND ( 'NONE', #157, .T. ) ;
#203 = CARTESIAN_POINT ( 'NONE',  ( -10.00000000000000200, 9.999999999999998200, -10.00000000000000000 ) ) ;
#204 = CARTESIAN_POINT ( 'NONE',  ( -10.00000000000000200, 9.999999999999998200, -10.00000000000000000 ) ) ;
#205 = CARTESIAN_POINT ( 'NONE',  ( 10.00000000000000200, -10.00000000000000200, -10.00000000000000000 ) ) ;
#206 = DATE_AND_TIME ( #280, #1 ) ;
#207 = ADVANCED_FACE ( 'NONE', ( #247 ), #44, .T. ) ;
#208 = ORIENTED_EDGE ( 'NONE', *, *, #242, .T. ) ;
#209 = EDGE_CURVE ( 'NONE', #5, #64, #324, .T. ) ;
#210 = PERSON ( 'UNSPECIFIED', 'UNSPECIFIED', 'UNSPECIFIED', ('UNSPECIFIED'), ('UNSPECIFIED'), ('UNSPECIFIED') ) ;
#211 = CC_DESIGN_APPROVAL ( #188, ( #167 ) ) ;
#212 = VERTEX_POINT ( 'NONE', #150 ) ;
#213 = CARTESIAN_POINT ( 'NONE',  ( 10.00000000000000200, -10.00000000000000200, 10.00000000000000000 ) ) ;
#214 = EDGE_LOOP ( 'NONE', ( #217, #344, #118, #84 ) ) ;
#215 = PERSON_AND_ORGANIZATION ( #210, #11 ) ;
#216 = ORIENTED_EDGE ( 'NONE', *, *, #87, .T. ) ;
#217 = ORIENTED_EDGE ( 'NONE', *, *, #54, .T. ) ;
#218 =( LENGTH_UNIT ( ) NAMED_UNIT ( * ) SI_UNIT ( .MILLI., .METRE. ) );
#219 = CARTESIAN_POINT ( 'NONE',  ( -9.999999999999998200, -10.00000000000000200, 10.00000000000000000 ) ) ;
#220 = ORIENTED_EDGE ( 'NONE', *, *, #335, .T. ) ;
#221 = APPLICATION_CONTEXT ( 'configuration controlled 3d designs of mechanical parts and assemblies' ) ;
#222 = CC_DESIGN_SECURITY_CLASSIFICATION ( #128, ( #267 ) ) ;
#223 = ORIENTED_EDGE ( 'NONE', *, *, #181, .T. ) ;
#224 = EDGE_CURVE ( 'NONE', #61, #5, #104, .T. ) ;
#225 = VECTOR ( 'NONE', #310, 1000.000000000000000 ) ;
#226 = VERTEX_POINT ( 'NONE', #205 ) ;
#227 = CARTESIAN_POINT ( 'NONE',  ( 10.00000000000000200, -10.00000000000000200, 10.00000000000000000 ) ) ;
#228 = CC_DESIGN_PERSON_AND_ORGANIZATION_ASSIGNMENT ( #63, #276, ( #167 ) ) ;
#229 = DIRECTION ( 'NONE',  ( -0.7071067811865474600, -0.7071067811865476800, 0.0000000000000000000 ) ) ;
#230 = DIRECTION ( 'NONE',  ( 1.000000000000000000, 0.0000000000000000000, 0.0000000000000000000 ) ) ;
#231 = DIRECTION ( 'NONE',  ( -1.734723475976807100E-016, 1.000000000000000000, 0.0000000000000000000 ) ) ;
#232 = DIRECTION ( 'NONE',  ( -0.0000000000000000000, -0.0000000000000000000, -1.000000000000000000 ) ) ;
#233 = LINE ( 'NONE', #326, #354 ) ;
#234 = CARTESIAN_POINT ( 'NONE',  ( 0.0000000000000000000, 0.0000000000000000000, -10.00000000000000000 ) ) ;
#235 = ADVANCED_FACE ( 'NONE', ( #112 ), #141, .F. ) ;
#236 = LINE ( 'NONE', #15, #164 ) ;
#237 = AXIS2_PLACEMENT_3D ( 'NONE', #72, #258, #94 ) ;
#238 = PRODUCT_RELATED_PRODUCT_CATEGORY ( 'detail', '', ( #176 ) ) ;
#239 = FACE_OUTER_BOUND ( 'NONE', #281, .T. ) ;
#240 = LOCAL_TIME ( 10, 27, 40.00000000000000000, #12 ) ;
#241 = LINE ( 'NONE', #284, #88 ) ;
#242 = EDGE_CURVE ( 'NONE', #142, #64, #98, .T. ) ;
#243 = DIRECTION ( 'NONE',  ( -0.0000000000000000000, -0.0000000000000000000, -1.000000000000000000 ) ) ;
#244 = APPROVAL_STATUS ( 'not_yet_approved' ) ;
#245 = CC_DESIGN_DATE_AND_TIME_ASSIGNMENT ( #124, #109, ( #167 ) ) ;
#246 = LINE ( 'NONE', #120, #170 ) ;
#247 = FACE_OUTER_BOUND ( 'NONE', #182, .T. ) ;
#248 = UNCERTAINTY_MEASURE_WITH_UNIT (LENGTH_MEASURE( 1.000000000000000100E-005 ), #218, 'distance_accuracy_value', 'NONE');
#249 = EDGE_LOOP ( 'NONE', ( #223, #325, #68, #36 ) ) ;
#250 = CARTESIAN_POINT ( 'NONE',  ( 30.00000000000000700, -10.00000000000000200, 10.00000000000000000 ) ) ;
#251 = DIRECTION ( 'NONE',  ( 1.000000000000000000, 0.0000000000000000000, 0.0000000000000000000 ) ) ;
#252 = COORDINATED_UNIVERSAL_TIME_OFFSET ( 5, 0, .BEHIND. ) ;
#253 = CARTESIAN_POINT ( 'NONE',  ( 30.00000000000000700, -10.00000000000000200, 10.00000000000000000 ) ) ;
#254 = CARTESIAN_POINT ( 'NONE',  ( 10.00000000000000200, -10.00000000000000200, 10.00000000000000000 ) ) ;
#255 = VERTEX_POINT ( 'NONE', #227 ) ;
#256 = PLANE ( 'NONE',  #194 ) ;
#257 = DIRECTION ( 'NONE',  ( -0.0000000000000000000, 0.0000000000000000000, 1.000000000000000000 ) ) ;
#258 = DIRECTION ( 'NONE',  ( 0.0000000000000000000, 0.0000000000000000000, -1.000000000000000000 ) ) ;
#259 = LINE ( 'NONE', #121, #180 ) ;
#260 = DIRECTION ( 'NONE',  ( 0.0000000000000000000, 0.0000000000000000000, -1.000000000000000000 ) ) ;
#261 = ADVANCED_FACE ( 'NONE', ( #307 ), #91, .T. ) ;
#262 = EDGE_CURVE ( 'NONE', #270, #337, #236, .T. ) ;
#263 = EDGE_CURVE ( 'NONE', #56, #5, #241, .T. ) ;
#264 = EDGE_LOOP ( 'NONE', ( #268, #133, #300, #216 ) ) ;
#265 = LOCAL_TIME ( 10, 27, 40.00000000000000000, #339 ) ;
#266 = APPROVAL_STATUS ( 'not_yet_approved' ) ;
#267 = PRODUCT_DEFINITION_FORMATION_WITH_SPECIFIED_SOURCE ( 'ANY', '', #176, .NOT_KNOWN. ) ;
#268 = ORIENTED_EDGE ( 'NONE', *, *, #3, .T. ) ;
#269 = PLANE ( 'NONE',  #16 ) ;
#270 = VERTEX_POINT ( 'NONE', #37 ) ;
#271 = FACE_OUTER_BOUND ( 'NONE', #214, .T. ) ;
#272 = LOCAL_TIME ( 10, 27, 40.00000000000000000, #348 ) ;
#273 = AXIS2_PLACEMENT_3D ( 'NONE', #234, #260, #96 ) ;
#274 =( NAMED_UNIT ( * ) SI_UNIT ( $, .STERADIAN. ) SOLID_ANGLE_UNIT ( ) );
#275 = APPROVAL_DATE_TIME ( #351, #286 ) ;
#276 = PERSON_AND_ORGANIZATION_ROLE ( 'creator' ) ;
#277 = ORIENTED_EDGE ( 'NONE', *, *, #165, .T. ) ;
#278 = ORIENTED_EDGE ( 'NONE', *, *, #297, .F. ) ;
#279 = VECTOR ( 'NONE', #232, 1000.000000000000000 ) ;
#280 = CALENDAR_DATE ( 2017, 13, 7 ) ;
#281 = EDGE_LOOP ( 'NONE', ( #50, #13, #2, #129 ) ) ;
#282 = EDGE_CURVE ( 'NONE', #212, #226, #155, .T. ) ;
#283 = DIRECTION ( 'NONE',  ( -0.7071067811865476800, 0.7071067811865474600, 0.0000000000000000000 ) ) ;
#284 = CARTESIAN_POINT ( 'NONE',  ( -10.00000000000000200, 9.999999999999998200, 10.00000000000000000 ) ) ;
#285 = ORIENTED_EDGE ( 'NONE', *, *, #317, .T. ) ;
#286 = APPROVAL ( #303, 'UNSPECIFIED' ) ;
#287 = DIRECTION ( 'NONE',  ( -0.0000000000000000000, -0.0000000000000000000, -1.000000000000000000 ) ) ;
#288 = CARTESIAN_POINT ( 'NONE',  ( 10.00000000000000200, -10.00000000000000200, 10.00000000000000000 ) ) ;
#289 = DATE_TIME_ROLE ( 'classification_date' ) ;
#290 = DIRECTION ( 'NONE',  ( 1.000000000000000000, 0.0000000000000000000, 0.0000000000000000000 ) ) ;
#291 = PERSON_AND_ORGANIZATION ( #210, #11 ) ;
#292 = ADVANCED_FACE ( 'NONE', ( #23 ), #144, .F. ) ;
#293 = CARTESIAN_POINT ( 'NONE',  ( 9.999999999999998200, 9.999999999999998200, 10.00000000000000000 ) ) ;
#294 = ORIENTED_EDGE ( 'NONE', *, *, #24, .T. ) ;
#295 = CARTESIAN_POINT ( 'NONE',  ( 10.00000000000000200, -10.00000000000000200, 10.00000000000000000 ) ) ;
#296 = DESIGN_CONTEXT ( 'detailed design', #221, 'design' ) ;
#297 = EDGE_CURVE ( 'NONE', #142, #226, #151, .T. ) ;
#298 = VECTOR ( 'NONE', #287, 1000.000000000000000 ) ;
#299 = PLANE ( 'NONE',  #99 ) ;
#300 = ORIENTED_EDGE ( 'NONE', *, *, #22, .F. ) ;
#301 = CARTESIAN_POINT ( 'NONE',  ( -10.00000000000000200, 9.999999999999998200, 10.00000000000000000 ) ) ;
#302 = APPLICATION_PROTOCOL_DEFINITION ( 'international standard', 'config_control_design', 1994, #327 ) ;
#303 = APPROVAL_STATUS ( 'not_yet_approved' ) ;
#304 = CC_DESIGN_APPROVAL ( #286, ( #267 ) ) ;
#305 = ORIENTED_EDGE ( 'NONE', *, *, #262, .T. ) ;
#306 = LINE ( 'NONE', #204, #71 ) ;
#307 = FACE_OUTER_BOUND ( 'NONE', #77, .T. ) ;
#308 = AXIS2_PLACEMENT_3D ( 'NONE', #338, #166, #14 ) ;
#309 = DIRECTION ( 'NONE',  ( 0.0000000000000000000, -0.0000000000000000000, 1.000000000000000000 ) ) ;
#310 = DIRECTION ( 'NONE',  ( 0.7071067811865475700, -0.7071067811865474600, 0.0000000000000000000 ) ) ;
#311 = VECTOR ( 'NONE', #82, 1000.000000000000000 ) ;
#312 = CARTESIAN_POINT ( 'NONE',  ( -10.00000000000000200, 9.999999999999998200, 10.00000000000000000 ) ) ;
#313 = LINE ( 'NONE', #43, #41 ) ;
#314 = CARTESIAN_POINT ( 'NONE',  ( 9.999999999999998200, 9.999999999999998200, 10.00000000000000000 ) ) ;
#315 = VECTOR ( 'NONE', #283, 1000.000000000000000 ) ;
#316 = ADVANCED_FACE ( 'NONE', ( #80 ), #69, .T. ) ;
#317 = EDGE_CURVE ( 'NONE', #255, #352, #27, .T. ) ;
#318 = MANIFOLD_SOLID_BREP ( 'Boss-Extrude2', #175 ) ;
#319 = CC_DESIGN_PERSON_AND_ORGANIZATION_ASSIGNMENT ( #196, #330, ( #267 ) ) ;
#320 = APPROVAL_DATE_TIME ( #38, #178 ) ;
#321 = LINE ( 'NONE', #4, #311 ) ;
#322 = LINE ( 'NONE', #171, #163 ) ;
#323 = DIRECTION ( 'NONE',  ( -0.7071067811865474600, -0.7071067811865475700, 0.0000000000000000000 ) ) ;
#324 = LINE ( 'NONE', #293, #173 ) ;
#325 = ORIENTED_EDGE ( 'NONE', *, *, #209, .F. ) ;
#326 = CARTESIAN_POINT ( 'NONE',  ( 10.00000000000000200, -10.00000000000000200, -10.00000000000000000 ) ) ;
#327 = APPLICATION_CONTEXT ( 'configuration controlled 3d designs of mechanical parts and assemblies' ) ;
#328 = EDGE_CURVE ( 'NONE', #270, #140, #169, .T. ) ;
#329 = APPROVAL_PERSON_ORGANIZATION ( #48, #178, #100 ) ;
#330 = PERSON_AND_ORGANIZATION_ROLE ( 'creator' ) ;
#331 = AXIS2_PLACEMENT_3D ( 'NONE', #253, #229, #346 ) ;
#332 = ORIENTED_EDGE ( 'NONE', *, *, #105, .T. ) ;
#333 = LINE ( 'NONE', #42, #279 ) ;
#334 = APPROVAL_PERSON_ORGANIZATION ( #53, #286, #138 ) ;
#335 = EDGE_CURVE ( 'NONE', #56, #212, #321, .T. ) ;
#336 = ORIENTED_EDGE ( 'NONE', *, *, #242, .F. ) ;
#337 = VERTEX_POINT ( 'NONE', #107 ) ;
#338 = CARTESIAN_POINT ( 'NONE',  ( 0.0000000000000000000, 0.0000000000000000000, -10.00000000000000000 ) ) ;
#339 = COORDINATED_UNIVERSAL_TIME_OFFSET ( 5, 0, .BEHIND. ) ;
#340 = CC_DESIGN_PERSON_AND_ORGANIZATION_ASSIGNMENT ( #127, #161, ( #267 ) ) ;
#341 = ORIENTED_EDGE ( 'NONE', *, *, #181, .F. ) ;
#342 = DIRECTION ( 'NONE',  ( 0.0000000000000000000, -0.0000000000000000000, 1.000000000000000000 ) ) ;
#343 = DIRECTION ( 'NONE',  ( -0.7071067811865475700, 0.7071067811865474600, 0.0000000000000000000 ) ) ;
#344 = ORIENTED_EDGE ( 'NONE', *, *, #87, .F. ) ;
#345 = VECTOR ( 'NONE', #119, 1000.000000000000000 ) ;
#346 = DIRECTION ( 'NONE',  ( 0.7071067811865476800, -0.7071067811865474600, 0.0000000000000000000 ) ) ;
#347 = DIRECTION ( 'NONE',  ( -0.7071067811865475700, 0.7071067811865474600, 0.0000000000000000000 ) ) ;
#348 = COORDINATED_UNIVERSAL_TIME_OFFSET ( 5, 0, .BEHIND. ) ;
#349 = ADVANCED_FACE ( 'NONE', ( #239 ), #299, .F. ) ;
#350 = AXIS2_PLACEMENT_3D ( 'NONE', #114, #115, #309 ) ;
#351 = DATE_AND_TIME ( #66, #240 ) ;
#352 = VERTEX_POINT ( 'NONE', #134 ) ;
#353 = EDGE_LOOP ( 'NONE', ( #277, #174, #113, #285 ) ) ;
#354 = VECTOR ( 'NONE', #186, 1000.000000000000000 ) ;
ENDSEC;
END-ISO-10303-21;
