ISO-10303-21;
HEADER;
FILE_DESCRIPTION (( 'STEP AP203' ),
    '1' );
FILE_NAME ('TTN023917-E0W.STEP',
    '2014-04-22T14:52:20',
    ( 'admin' ),
    ( '' ),
    'SwSTEP 2.0',
    'SolidWorks 2012',
    '' );
FILE_SCHEMA (( 'CONFIG_CONTROL_DESIGN' ));
ENDSEC;

DATA;
#1 = LOCAL_TIME ( 10, 52, 20.00000000000000000, #4 ) ;
#2 = PERSON_AND_ORGANIZATION ( #118, #122 ) ;
#3 = CALENDAR_DATE ( 2014, 22, 4 ) ;
#4 = COORDINATED_UNIVERSAL_TIME_OFFSET ( 5, 0, .BEHIND. ) ;
#5 = DATE_AND_TIME ( #77, #78 ) ;
#6 = PERSON_AND_ORGANIZATION ( #118, #122 ) ;
#7 = PERSON_AND_ORGANIZATION ( #118, #122 ) ;
#8 = APPROVAL_DATE_TIME ( #5, #246 ) ;
#9 = DIRECTION ( 'NONE',  ( -1.000000000000000000, 0.0000000000000000000, 0.0000000000000000000 ) ) ;
#10 = DIRECTION ( 'NONE',  ( 0.0000000000000000000, 0.0000000000000000000, 1.000000000000000000 ) ) ;
#11 = CARTESIAN_POINT ( 'NONE',  ( 0.4921259842519684100, 6.026805113914138600E-017, 0.06776933409193008900 ) ) ;
#12 = CARTESIAN_POINT ( 'NONE',  ( 0.0000000000000000000, 0.0000000000000000000, -0.07874015748031494600 ) ) ;
#13 = DIRECTION ( 'NONE',  ( -0.0000000000000000000, -0.0000000000000000000, -1.000000000000000000 ) ) ;
#14 = DIRECTION ( 'NONE',  ( -1.000000000000000000, 0.0000000000000000000, 0.0000000000000000000 ) ) ;
#15 = CARTESIAN_POINT ( 'NONE',  ( 0.0000000000000000000, 0.0000000000000000000, 0.0000000000000000000 ) ) ;
#16 = CARTESIAN_POINT ( 'NONE',  ( 0.0000000000000000000, 0.0000000000000000000, 0.05989531834389858600 ) ) ;
#17 = DIRECTION ( 'NONE',  ( -0.0000000000000000000, -0.0000000000000000000, -1.000000000000000000 ) ) ;
#18 = DIRECTION ( 'NONE',  ( -1.000000000000000000, 0.0000000000000000000, 0.0000000000000000000 ) ) ;
#19 = DIRECTION ( 'NONE',  ( 0.7071067811865543500, 8.659560562355016700E-017, -0.7071067811865405800 ) ) ;
#20 = CARTESIAN_POINT ( 'NONE',  ( 0.0000000000000000000, 0.0000000000000000000, 0.06776933409193008900 ) ) ;
#21 = DIRECTION ( 'NONE',  ( -0.0000000000000000000, -0.0000000000000000000, -1.000000000000000000 ) ) ;
#22 = DIRECTION ( 'NONE',  ( -1.000000000000000000, 0.0000000000000000000, 0.0000000000000000000 ) ) ;
#23 =( LENGTH_UNIT ( ) NAMED_UNIT ( * ) SI_UNIT ( $, .METRE. ) );
#24 =( CONVERSION_BASED_UNIT ( 'INCH', #180 ) LENGTH_UNIT ( ) NAMED_UNIT ( #278 ) );
#25 =( NAMED_UNIT ( * ) PLANE_ANGLE_UNIT ( ) SI_UNIT ( $, .RADIAN. ) );
#26 =( NAMED_UNIT ( * ) SI_UNIT ( $, .STERADIAN. ) SOLID_ANGLE_UNIT ( ) );
#27 = APPLICATION_PROTOCOL_DEFINITION ( 'international standard', 'config_control_design', 1994, #28 ) ;
#28 = APPLICATION_CONTEXT ( 'configuration controlled 3d designs of mechanical parts and assemblies' ) ;
#29 = DIRECTION ( 'NONE',  ( 1.000000000000000000, 0.0000000000000000000, 0.0000000000000000000 ) ) ;
#30 = MECHANICAL_CONTEXT ( 'NONE', #28, 'mechanical' ) ;
#31 = PERSON_AND_ORGANIZATION_ROLE ( 'design_owner' ) ;
#32 = APPLICATION_CONTEXT ( 'configuration controlled 3d designs of mechanical parts and assemblies' ) ;
#33 = APPLICATION_PROTOCOL_DEFINITION ( 'international standard', 'config_control_design', 1994, #32 ) ;
#34 = APPROVAL_STATUS ( 'not_yet_approved' ) ;
#35 = APPROVAL_ROLE ( '' ) ;
#36 = PERSON_AND_ORGANIZATION_ROLE ( 'creator' ) ;
#37 = DATE_TIME_ROLE ( 'creation_date' ) ;
#38 = APPROVAL_STATUS ( 'not_yet_approved' ) ;
#39 = APPROVAL_ROLE ( '' ) ;
#40 = PERSON_AND_ORGANIZATION_ROLE ( 'creator' ) ;
#41 = PERSON_AND_ORGANIZATION_ROLE ( 'design_supplier' ) ;
#42 = SECURITY_CLASSIFICATION_LEVEL ( 'unclassified' ) ;
#43 = PERSON_AND_ORGANIZATION_ROLE ( 'classification_officer' ) ;
#44 = DATE_TIME_ROLE ( 'classification_date' ) ;
#45 = APPROVAL_STATUS ( 'not_yet_approved' ) ;
#46 = APPROVAL_ROLE ( '' ) ;
#47 = CARTESIAN_POINT ( 'NONE',  ( 0.4921259842519684100, 6.075019554825453600E-017, 0.06776933409193008900 ) ) ;
#48 = DIRECTION ( 'NONE',  ( -0.7071067811865490200, 8.659560562354951300E-017, 0.7071067811865459100 ) ) ;
#49 = CARTESIAN_POINT ( 'NONE',  ( -0.4921259842519684100, 0.0000000000000000000, 0.06776933409193008900 ) ) ;
#50 = DIRECTION ( 'NONE',  ( -0.7071067811865543500, 0.0000000000000000000, -0.7071067811865405800 ) ) ;
#51 = CARTESIAN_POINT ( 'NONE',  ( 0.0000000000000000000, 0.0000000000000000000, -0.07874015748031494600 ) ) ;
#52 = DIRECTION ( 'NONE',  ( -0.0000000000000000000, -0.0000000000000000000, -1.000000000000000000 ) ) ;
#53 = DIRECTION ( 'NONE',  ( -1.000000000000000000, 0.0000000000000000000, 0.0000000000000000000 ) ) ;
#54 = CARTESIAN_POINT ( 'NONE',  ( 0.0000000000000000000, 0.0000000000000000000, 0.05989531834389858600 ) ) ;
#55 = DIRECTION ( 'NONE',  ( -0.0000000000000000000, -0.0000000000000000000, -1.000000000000000000 ) ) ;
#56 = DIRECTION ( 'NONE',  ( -1.000000000000000000, 0.0000000000000000000, 0.0000000000000000000 ) ) ;
#57 = CARTESIAN_POINT ( 'NONE',  ( 0.0000000000000000000, 0.0000000000000000000, 0.05989531834389858600 ) ) ;
#58 = DIRECTION ( 'NONE',  ( -0.0000000000000000000, -0.0000000000000000000, -1.000000000000000000 ) ) ;
#59 = DIRECTION ( 'NONE',  ( -1.000000000000000000, 0.0000000000000000000, 0.0000000000000000000 ) ) ;
#60 = CARTESIAN_POINT ( 'NONE',  ( 0.0000000000000000000, 1.337810122278084300E-015, -10.96456692913386600 ) ) ;
#61 = DIRECTION ( 'NONE',  ( 1.000000000000000000, 1.224646799147353200E-016, 3.749275628560213600E-032 ) ) ;
#62 = DIRECTION ( 'NONE',  ( -1.224646799147353000E-016, 1.000000000000000000, 0.0000000000000000000 ) ) ;
#63 = CARTESIAN_POINT ( 'NONE',  ( 0.5000000000000000000, 0.0000000000000000000, -0.07086614173228346400 ) ) ;
#64 = DIRECTION ( 'NONE',  ( 0.7071067811865490200, 0.0000000000000000000, 0.7071067811865459100 ) ) ;
#65 = CARTESIAN_POINT ( 'NONE',  ( 0.0000000000000000000, 0.0000000000000000000, -0.07086614173228346400 ) ) ;
#66 = DIRECTION ( 'NONE',  ( -0.0000000000000000000, -0.0000000000000000000, -1.000000000000000000 ) ) ;
#67 = DIRECTION ( 'NONE',  ( -1.000000000000000000, 0.0000000000000000000, 0.0000000000000000000 ) ) ;
#68 = CARTESIAN_POINT ( 'NONE',  ( -0.5000000000000000000, 6.123233995736766000E-017, -0.07086614173228346400 ) ) ;
#69 = CARTESIAN_POINT ( 'NONE',  ( -0.5000000000000001100, 0.0000000000000000000, 0.05989531834389858600 ) ) ;
#70 = CARTESIAN_POINT ( 'NONE',  ( 0.0000000000000000000, 0.0000000000000000000, -0.07086614173228346400 ) ) ;
#71 = DIRECTION ( 'NONE',  ( -0.0000000000000000000, -0.0000000000000000000, -1.000000000000000000 ) ) ;
#72 = DIRECTION ( 'NONE',  ( -1.000000000000000000, 0.0000000000000000000, 0.0000000000000000000 ) ) ;
#73 = CARTESIAN_POINT ( 'NONE',  ( 0.0000000000000000000, 0.5000000000000000000, -0.07086614173228346400 ) ) ;
#74 = CARTESIAN_POINT ( 'NONE',  ( 0.5000000000000000000, 0.0000000000000000000, -0.07086614173228346400 ) ) ;
#75 = CARTESIAN_POINT ( 'NONE',  ( 6.123233995736767300E-017, -0.5000000000000001100, 0.05989531834389858600 ) ) ;
#76 = CARTESIAN_POINT ( 'NONE',  ( 0.5000000000000001100, 6.123233995736767300E-017, 0.05989531834389858600 ) ) ;
#77 = CALENDAR_DATE ( 2014, 22, 4 ) ;
#78 = LOCAL_TIME ( 10, 52, 20.00000000000000000, #79 ) ;
#79 = COORDINATED_UNIVERSAL_TIME_OFFSET ( 5, 0, .BEHIND. ) ;
#80 = APPROVAL_PERSON_ORGANIZATION ( #129, #246, #39 ) ;
#81 = ORIENTED_EDGE ( 'NONE', *, *, #260, .T. ) ;
#82 = ORIENTED_EDGE ( 'NONE', *, *, #361, .F. ) ;
#83 = ORIENTED_EDGE ( 'NONE', *, *, #121, .T. ) ;
#84 = ORIENTED_EDGE ( 'NONE', *, *, #348, .F. ) ;
#85 = ORIENTED_EDGE ( 'NONE', *, *, #257, .F. ) ;
#86 = EDGE_LOOP ( 'NONE', ( #162, #163, #164, #153, #156 ) ) ;
#87 = ORIENTED_EDGE ( 'NONE', *, *, #259, .T. ) ;
#88 = ORIENTED_EDGE ( 'NONE', *, *, #177, .F. ) ;
#89 = EDGE_LOOP ( 'NONE', ( #82, #91, #100, #95, #92, #85 ) ) ;
#90 = ORIENTED_EDGE ( 'NONE', *, *, #349, .F. ) ;
#91 = ORIENTED_EDGE ( 'NONE', *, *, #210, .T. ) ;
#92 = ORIENTED_EDGE ( 'NONE', *, *, #350, .F. ) ;
#93 = ORIENTED_EDGE ( 'NONE', *, *, #292, .T. ) ;
#94 = ORIENTED_EDGE ( 'NONE', *, *, #349, .T. ) ;
#95 = ORIENTED_EDGE ( 'NONE', *, *, #120, .T. ) ;
#96 = EDGE_LOOP ( 'NONE', ( #157, #165, #166, #159, #160, #154 ) ) ;
#97 = ORIENTED_EDGE ( 'NONE', *, *, #348, .T. ) ;
#98 = ORIENTED_EDGE ( 'NONE', *, *, #119, .F. ) ;
#99 = ORIENTED_EDGE ( 'NONE', *, *, #179, .T. ) ;
#100 = ORIENTED_EDGE ( 'NONE', *, *, #261, .T. ) ;
#101 = CARTESIAN_POINT ( 'NONE',  ( 0.0000000000000000000, 0.5000000000000001100, 0.05989531834389858600 ) ) ;
#102 = DESIGN_CONTEXT ( 'detailed design', #32, 'design' ) ;
#103 = PRODUCT_DEFINITION_SHAPE ( 'NONE', 'NONE',  #240 ) ;
#104 = VERTEX_POINT ( 'NONE', #176 ) ;
#105 = VERTEX_POINT ( 'NONE', #175 ) ;
#106 = EDGE_LOOP ( 'NONE', ( #109, #93, #107, #112 ) ) ;
#107 = ORIENTED_EDGE ( 'NONE', *, *, #362, .F. ) ;
#108 = EDGE_LOOP ( 'NONE', ( #158, #161, #167, #81, #88, #84 ) ) ;
#109 = ORIENTED_EDGE ( 'NONE', *, *, #126, .F. ) ;
#110 = VERTEX_POINT ( 'NONE', #347 ) ;
#111 = VERTEX_POINT ( 'NONE', #47 ) ;
#112 = ORIENTED_EDGE ( 'NONE', *, *, #261, .F. ) ;
#113 = EDGE_LOOP ( 'NONE', ( #356, #353, #357, #354 ) ) ;
#114 = CLOSED_SHELL ( 'NONE', ( #271, #269, #270, #273, #272, #274, #276, #277, #275 ) ) ;
#115 = EDGE_LOOP ( 'NONE', ( #359, #355, #351, #358, #352, #155 ) ) ;
#116 = VERTEX_POINT ( 'NONE', #360 ) ;
#117 = PRODUCT ( 'TTN023917-E0W', 'TTN023917-E0W', '', ( #30 ) ) ;
#118 = PERSON ( 'UNSPECIFIED', 'UNSPECIFIED', 'UNSPECIFIED', ('UNSPECIFIED'), ('UNSPECIFIED'), ('UNSPECIFIED') ) ;
#119 = EDGE_CURVE ( 'NONE', #105, #200, #198, .T. ) ;
#120 = EDGE_CURVE ( 'NONE', #203, #192, #185, .T. ) ;
#121 = EDGE_CURVE ( 'NONE', #105, #204, #197, .T. ) ;
#122 = ORGANIZATION ( 'UNSPECIFIED', 'UNSPECIFIED', '' ) ;
#123 = PERSON_AND_ORGANIZATION ( #118, #122 ) ;
#124 = EDGE_CURVE ( 'NONE', #191, #188, #196, .T. ) ;
#125 = EDGE_CURVE ( 'NONE', #192, #191, #202, .T. ) ;
#126 = EDGE_CURVE ( 'NONE', #104, #116, #186, .T. ) ;
#127 = COORDINATED_UNIVERSAL_TIME_OFFSET ( 5, 0, .BEHIND. ) ;
#128 = PERSON_AND_ORGANIZATION ( #118, #122 ) ;
#129 = PERSON_AND_ORGANIZATION ( #118, #122 ) ;
#130 = PERSON_AND_ORGANIZATION ( #118, #122 ) ;
#131 = DATE_AND_TIME ( #139, #137 ) ;
#132 = CALENDAR_DATE ( 2014, 22, 4 ) ;
#133 = DATE_AND_TIME ( #132, #136 ) ;
#134 = COORDINATED_UNIVERSAL_TIME_OFFSET ( 5, 0, .BEHIND. ) ;
#135 = APPROVAL_PERSON_ORGANIZATION ( #130, #241, #35 ) ;
#136 = LOCAL_TIME ( 10, 52, 20.00000000000000000, #127 ) ;
#137 = LOCAL_TIME ( 10, 52, 20.00000000000000000, #134 ) ;
#138 = APPROVAL_DATE_TIME ( #131, #241 ) ;
#139 = CALENDAR_DATE ( 2014, 22, 4 ) ;
#140 = LOCAL_TIME ( 10, 52, 20.00000000000000000, #205 ) ;
#141 = CALENDAR_DATE ( 2014, 22, 4 ) ;
#142 = DATE_AND_TIME ( #141, #140 ) ;
#143 = APPROVAL_DATE_TIME ( #142, #253 ) ;
#144 = FACE_OUTER_BOUND ( 'NONE', #89, .T. ) ;
#145 = CYLINDRICAL_SURFACE ( 'NONE', #227, 0.5000000000000000000 ) ;
#146 = SPHERICAL_SURFACE ( 'NONE', #226, 11.04330708661417800 ) ;
#147 = CONICAL_SURFACE ( 'NONE', #223, 0.4921259842519684100, 0.7853981633974581600 ) ;
#148 = FACE_OUTER_BOUND ( 'NONE', #182, .T. ) ;
#149 = FACE_OUTER_BOUND ( 'NONE', #96, .T. ) ;
#150 = CONICAL_SURFACE ( 'NONE', #224, 0.5000000000000000000, 0.7853981633974505000 ) ;
#151 = FACE_OUTER_BOUND ( 'NONE', #106, .T. ) ;
#152 = FACE_OUTER_BOUND ( 'NONE', #108, .T. ) ;
#153 = ORIENTED_EDGE ( 'NONE', *, *, #178, .T. ) ;
#154 = ORIENTED_EDGE ( 'NONE', *, *, #260, .F. ) ;
#155 = ORIENTED_EDGE ( 'NONE', *, *, #120, .F. ) ;
#156 = ORIENTED_EDGE ( 'NONE', *, *, #179, .F. ) ;
#157 = ORIENTED_EDGE ( 'NONE', *, *, #124, .T. ) ;
#158 = ORIENTED_EDGE ( 'NONE', *, *, #258, .F. ) ;
#159 = ORIENTED_EDGE ( 'NONE', *, *, #259, .F. ) ;
#160 = ORIENTED_EDGE ( 'NONE', *, *, #178, .F. ) ;
#161 = ORIENTED_EDGE ( 'NONE', *, *, #350, .T. ) ;
#162 = ORIENTED_EDGE ( 'NONE', *, *, #121, .F. ) ;
#163 = ORIENTED_EDGE ( 'NONE', *, *, #119, .T. ) ;
#164 = ORIENTED_EDGE ( 'NONE', *, *, #177, .T. ) ;
#165 = ORIENTED_EDGE ( 'NONE', *, *, #257, .T. ) ;
#166 = ORIENTED_EDGE ( 'NONE', *, *, #258, .T. ) ;
#167 = ORIENTED_EDGE ( 'NONE', *, *, #125, .T. ) ;
#168 = CONICAL_SURFACE ( 'NONE', #230, 0.4921259842519684100, 0.7853981633974581600 ) ;
#169 = LINE ( 'NONE', #11, #172 ) ;
#170 = CIRCLE ( 'NONE', #235, 0.5000000000000001100 ) ;
#171 = SHAPE_DEFINITION_REPRESENTATION ( #103, #363 ) ;
#172 = VECTOR ( 'NONE', #19, 39.37007874015748900 ) ;
#173 = CIRCLE ( 'NONE', #236, 0.4921259842519684100 ) ;
#174 = CARTESIAN_POINT ( 'NONE',  ( 6.123233995736766000E-017, -0.5000000000000000000, -0.07086614173228346400 ) ) ;
#175 = CARTESIAN_POINT ( 'NONE',  ( -0.4921259842519684600, 6.075019554825452300E-017, -0.07874015748031494600 ) ) ;
#176 = CARTESIAN_POINT ( 'NONE',  ( 0.0000000000000000000, -1.366908350310600600E-015, 0.07874015748031065700 ) ) ;
#177 = EDGE_CURVE ( 'NONE', #200, #183, #201, .T. ) ;
#178 = EDGE_CURVE ( 'NONE', #183, #189, #190, .T. ) ;
#179 = EDGE_CURVE ( 'NONE', #204, #189, #199, .T. ) ;
#180 = LENGTH_MEASURE_WITH_UNIT ( LENGTH_MEASURE( 0.02539999999999999900 ), #23 );
#181 = EDGE_LOOP ( 'NONE', ( #94, #83 ) ) ;
#182 = EDGE_LOOP ( 'NONE', ( #98, #90, #99, #87, #97 ) ) ;
#183 = VERTEX_POINT ( 'NONE', #73 ) ;
#184 = VERTEX_POINT ( 'NONE', #75 ) ;
#185 = LINE ( 'NONE', #49, #194 ) ;
#186 = CIRCLE ( 'NONE', #215, 11.04330708661417800 ) ;
#187 = VECTOR ( 'NONE', #48, 39.37007874015748900 ) ;
#188 = VERTEX_POINT ( 'NONE', #76 ) ;
#189 = VERTEX_POINT ( 'NONE', #74 ) ;
#190 = CIRCLE ( 'NONE', #217, 0.5000000000000000000 ) ;
#191 = VERTEX_POINT ( 'NONE', #101 ) ;
#192 = VERTEX_POINT ( 'NONE', #69 ) ;
#193 = VECTOR ( 'NONE', #64, 39.37007874015748900 ) ;
#194 = VECTOR ( 'NONE', #50, 39.37007874015748900 ) ;
#195 = VERTEX_POINT ( 'NONE', #174 ) ;
#196 = CIRCLE ( 'NONE', #213, 0.5000000000000001100 ) ;
#197 = CIRCLE ( 'NONE', #212, 0.4921259842519684600 ) ;
#198 = LINE ( 'NONE', #209, #187 ) ;
#199 = LINE ( 'NONE', #63, #193 ) ;
#200 = VERTEX_POINT ( 'NONE', #68 ) ;
#201 = CIRCLE ( 'NONE', #216, 0.5000000000000000000 ) ;
#202 = CIRCLE ( 'NONE', #214, 0.5000000000000001100 ) ;
#203 = VERTEX_POINT ( 'NONE', #293 ) ;
#204 = VERTEX_POINT ( 'NONE', #294 ) ;
#205 = COORDINATED_UNIVERSAL_TIME_OFFSET ( 5, 0, .BEHIND. ) ;
#206 = DATE_AND_TIME ( #3, #1 ) ;
#207 = PERSON_AND_ORGANIZATION ( #118, #122 ) ;
#208 = APPROVAL_PERSON_ORGANIZATION ( #207, #253, #46 ) ;
#209 = CARTESIAN_POINT ( 'NONE',  ( -0.5000000000000000000, 6.123233995736766000E-017, -0.07086614173228346400 ) ) ;
#210 = EDGE_CURVE ( 'NONE', #111, #116, #280, .T. ) ;
#211 = EDGE_CURVE ( 'NONE', #110, #111, #286, .T. ) ;
#212 = AXIS2_PLACEMENT_3D ( 'NONE', #51, #52, #53 ) ;
#213 = AXIS2_PLACEMENT_3D ( 'NONE', #54, #55, #56 ) ;
#214 = AXIS2_PLACEMENT_3D ( 'NONE', #57, #58, #59 ) ;
#215 = AXIS2_PLACEMENT_3D ( 'NONE', #60, #61, #62 ) ;
#216 = AXIS2_PLACEMENT_3D ( 'NONE', #65, #66, #67 ) ;
#217 = AXIS2_PLACEMENT_3D ( 'NONE', #70, #71, #72 ) ;
#218 = AXIS2_PLACEMENT_3D ( 'NONE', #296, #297, #298 ) ;
#219 = AXIS2_PLACEMENT_3D ( 'NONE', #300, #301, #302 ) ;
#220 = AXIS2_PLACEMENT_3D ( 'NONE', #305, #306, #307 ) ;
#221 = AXIS2_PLACEMENT_3D ( 'NONE', #310, #311, #312 ) ;
#222 = AXIS2_PLACEMENT_3D ( 'NONE', #315, #316, #317 ) ;
#223 = AXIS2_PLACEMENT_3D ( 'NONE', #308, #313, #309 ) ;
#224 = AXIS2_PLACEMENT_3D ( 'NONE', #320, #318, #314 ) ;
#225 = AXIS2_PLACEMENT_3D ( 'NONE', #332, #330, #328 ) ;
#226 = AXIS2_PLACEMENT_3D ( 'NONE', #321, #319, #324 ) ;
#227 = AXIS2_PLACEMENT_3D ( 'NONE', #326, #323, #322 ) ;
#228 = AXIS2_PLACEMENT_3D ( 'NONE', #329, #327, #325 ) ;
#229 = AXIS2_PLACEMENT_3D ( 'NONE', #333, #331, #336 ) ;
#230 = AXIS2_PLACEMENT_3D ( 'NONE', #341, #340, #337 ) ;
#231 = AXIS2_PLACEMENT_3D ( 'NONE', #334, #338, #339 ) ;
#232 = AXIS2_PLACEMENT_3D ( 'NONE', #342, #343, #344 ) ;
#233 = AXIS2_PLACEMENT_3D ( 'NONE', #345, #346, #9 ) ;
#234 = AXIS2_PLACEMENT_3D ( 'NONE', #12, #13, #14 ) ;
#235 = AXIS2_PLACEMENT_3D ( 'NONE', #16, #17, #18 ) ;
#236 = AXIS2_PLACEMENT_3D ( 'NONE', #20, #21, #22 ) ;
#237 =( GEOMETRIC_REPRESENTATION_CONTEXT ( 3 ) GLOBAL_UNCERTAINTY_ASSIGNED_CONTEXT ( ( #364 ) ) GLOBAL_UNIT_ASSIGNED_CONTEXT ( ( #24, #25, #26 ) ) REPRESENTATION_CONTEXT ( 'NONE', 'WORKASPACE' ) );
#238 = AXIS2_PLACEMENT_3D ( 'NONE', #15, #10, #29 ) ;
#239 = CC_DESIGN_PERSON_AND_ORGANIZATION_ASSIGNMENT ( #123, #31, ( #117 ) ) ;
#240 = PRODUCT_DEFINITION ( 'UNKNOWN', '', #245, #102 ) ;
#241 = APPROVAL ( #34, 'UNSPECIFIED' ) ;
#242 = CC_DESIGN_APPROVAL ( #241, ( #240 ) ) ;
#243 = CC_DESIGN_PERSON_AND_ORGANIZATION_ASSIGNMENT ( #128, #36, ( #240 ) ) ;
#244 = CC_DESIGN_DATE_AND_TIME_ASSIGNMENT ( #133, #37, ( #240 ) ) ;
#245 = PRODUCT_DEFINITION_FORMATION_WITH_SPECIFIED_SOURCE ( 'ANY', '', #117, .NOT_KNOWN. ) ;
#246 = APPROVAL ( #38, 'UNSPECIFIED' ) ;
#247 = CC_DESIGN_APPROVAL ( #246, ( #245 ) ) ;
#248 = CC_DESIGN_PERSON_AND_ORGANIZATION_ASSIGNMENT ( #7, #40, ( #245 ) ) ;
#249 = CC_DESIGN_PERSON_AND_ORGANIZATION_ASSIGNMENT ( #6, #41, ( #245 ) ) ;
#250 = SECURITY_CLASSIFICATION ( '', '', #42 ) ;
#251 = CC_DESIGN_PERSON_AND_ORGANIZATION_ASSIGNMENT ( #2, #43, ( #250 ) ) ;
#252 = CC_DESIGN_DATE_AND_TIME_ASSIGNMENT ( #206, #44, ( #250 ) ) ;
#253 = APPROVAL ( #45, 'UNSPECIFIED' ) ;
#254 = CC_DESIGN_APPROVAL ( #253, ( #250 ) ) ;
#255 = CC_DESIGN_SECURITY_CLASSIFICATION ( #250, ( #245 ) ) ;
#256 = PRODUCT_RELATED_PRODUCT_CATEGORY ( 'detail', '', ( #117 ) ) ;
#257 = EDGE_CURVE ( 'NONE', #188, #184, #284, .T. ) ;
#258 = EDGE_CURVE ( 'NONE', #184, #195, #290, .T. ) ;
#259 = EDGE_CURVE ( 'NONE', #189, #195, #289, .T. ) ;
#260 = EDGE_CURVE ( 'NONE', #191, #183, #285, .T. ) ;
#261 = EDGE_CURVE ( 'NONE', #116, #203, #282, .T. ) ;
#262 = CYLINDRICAL_SURFACE ( 'NONE', #228, 0.5000000000000000000 ) ;
#263 = CIRCLE ( 'NONE', #232, 11.04330708661417800 ) ;
#264 = SPHERICAL_SURFACE ( 'NONE', #229, 11.04330708661417800 ) ;
#265 = CONICAL_SURFACE ( 'NONE', #225, 0.5000000000000000000, 0.7853981633974505000 ) ;
#266 = CIRCLE ( 'NONE', #234, 0.4921259842519684600 ) ;
#267 = FACE_OUTER_BOUND ( 'NONE', #181, .T. ) ;
#268 = CIRCLE ( 'NONE', #233, 0.5000000000000000000 ) ;
#269 = ADVANCED_FACE ( 'NONE', ( #283 ), #147, .T. ) ;
#270 = ADVANCED_FACE ( 'NONE', ( #281 ), #150, .T. ) ;
#271 = ADVANCED_FACE ( 'NONE', ( #291 ), #146, .T. ) ;
#272 = ADVANCED_FACE ( 'NONE', ( #152 ), #145, .T. ) ;
#273 = ADVANCED_FACE ( 'NONE', ( #149 ), #262, .T. ) ;
#274 = ADVANCED_FACE ( 'NONE', ( #148 ), #265, .T. ) ;
#275 = ADVANCED_FACE ( 'NONE', ( #151 ), #264, .T. ) ;
#276 = ADVANCED_FACE ( 'NONE', ( #267 ), #335, .T. ) ;
#277 = ADVANCED_FACE ( 'NONE', ( #144 ), #168, .T. ) ;
#278 = DIMENSIONAL_EXPONENTS ( 1.000000000000000000, 0.0000000000000000000, 0.0000000000000000000, 0.0000000000000000000, 0.0000000000000000000, 0.0000000000000000000, 0.0000000000000000000 ) ;
#279 = MANIFOLD_SOLID_BREP ( 'TTN023929-1-solid1', #114 ) ;
#280 = CIRCLE ( 'NONE', #218, 0.4921259842519684100 ) ;
#281 = FACE_OUTER_BOUND ( 'NONE', #86, .T. ) ;
#282 = CIRCLE ( 'NONE', #222, 0.4921259842519684100 ) ;
#283 = FACE_OUTER_BOUND ( 'NONE', #115, .T. ) ;
#284 = CIRCLE ( 'NONE', #220, 0.5000000000000001100 ) ;
#285 = LINE ( 'NONE', #303, #288 ) ;
#286 = CIRCLE ( 'NONE', #219, 0.4921259842519684100 ) ;
#287 = VECTOR ( 'NONE', #299, 39.37007874015748100 ) ;
#288 = VECTOR ( 'NONE', #304, 39.37007874015748100 ) ;
#289 = CIRCLE ( 'NONE', #221, 0.5000000000000000000 ) ;
#290 = LINE ( 'NONE', #295, #287 ) ;
#291 = FACE_OUTER_BOUND ( 'NONE', #113, .T. ) ;
#292 = EDGE_CURVE ( 'NONE', #104, #110, #263, .T. ) ;
#293 = CARTESIAN_POINT ( 'NONE',  ( -0.4921259842519684100, 0.0000000000000000000, 0.06776933409193008900 ) ) ;
#294 = CARTESIAN_POINT ( 'NONE',  ( 0.4921259842519684600, 0.0000000000000000000, -0.07874015748031494600 ) ) ;
#295 = CARTESIAN_POINT ( 'NONE',  ( 6.123233995736766000E-017, -0.5000000000000000000, -0.07874015748031511200 ) ) ;
#296 = CARTESIAN_POINT ( 'NONE',  ( 0.0000000000000000000, 0.0000000000000000000, 0.06776933409193008900 ) ) ;
#297 = DIRECTION ( 'NONE',  ( -0.0000000000000000000, -0.0000000000000000000, -1.000000000000000000 ) ) ;
#298 = DIRECTION ( 'NONE',  ( -1.000000000000000000, 0.0000000000000000000, 0.0000000000000000000 ) ) ;
#299 = DIRECTION ( 'NONE',  ( -0.0000000000000000000, 3.061515884555943100E-016, -1.000000000000000000 ) ) ;
#300 = CARTESIAN_POINT ( 'NONE',  ( 0.0000000000000000000, 0.0000000000000000000, 0.06776933409193008900 ) ) ;
#301 = DIRECTION ( 'NONE',  ( -0.0000000000000000000, -0.0000000000000000000, -1.000000000000000000 ) ) ;
#302 = DIRECTION ( 'NONE',  ( -1.000000000000000000, 0.0000000000000000000, 0.0000000000000000000 ) ) ;
#303 = CARTESIAN_POINT ( 'NONE',  ( 0.0000000000000000000, 0.5000000000000000000, -0.07874015748031480700 ) ) ;
#304 = DIRECTION ( 'NONE',  ( -0.0000000000000000000, 3.061515884555943100E-016, -1.000000000000000000 ) ) ;
#305 = CARTESIAN_POINT ( 'NONE',  ( 0.0000000000000000000, 0.0000000000000000000, 0.05989531834389858600 ) ) ;
#306 = DIRECTION ( 'NONE',  ( -0.0000000000000000000, -0.0000000000000000000, -1.000000000000000000 ) ) ;
#307 = DIRECTION ( 'NONE',  ( -1.000000000000000000, 0.0000000000000000000, 0.0000000000000000000 ) ) ;
#308 = CARTESIAN_POINT ( 'NONE',  ( 0.0000000000000000000, 0.0000000000000000000, 0.06776933409193008900 ) ) ;
#309 = DIRECTION ( 'NONE',  ( -1.000000000000000000, 0.0000000000000000000, 0.0000000000000000000 ) ) ;
#310 = CARTESIAN_POINT ( 'NONE',  ( 0.0000000000000000000, 0.0000000000000000000, -0.07086614173228346400 ) ) ;
#311 = DIRECTION ( 'NONE',  ( -0.0000000000000000000, -0.0000000000000000000, -1.000000000000000000 ) ) ;
#312 = DIRECTION ( 'NONE',  ( -1.000000000000000000, 0.0000000000000000000, 0.0000000000000000000 ) ) ;
#313 = DIRECTION ( 'NONE',  ( -0.0000000000000000000, -0.0000000000000000000, -1.000000000000000000 ) ) ;
#314 = DIRECTION ( 'NONE',  ( 1.000000000000000000, 0.0000000000000000000, 0.0000000000000000000 ) ) ;
#315 = CARTESIAN_POINT ( 'NONE',  ( 0.0000000000000000000, 0.0000000000000000000, 0.06776933409193008900 ) ) ;
#316 = DIRECTION ( 'NONE',  ( -0.0000000000000000000, -0.0000000000000000000, -1.000000000000000000 ) ) ;
#317 = DIRECTION ( 'NONE',  ( -1.000000000000000000, 0.0000000000000000000, 0.0000000000000000000 ) ) ;
#318 = DIRECTION ( 'NONE',  ( 0.0000000000000000000, 0.0000000000000000000, 1.000000000000000000 ) ) ;
#319 = DIRECTION ( 'NONE',  ( 1.000000000000000000, 0.0000000000000000000, -0.0000000000000000000 ) ) ;
#320 = CARTESIAN_POINT ( 'NONE',  ( 0.0000000000000000000, 0.0000000000000000000, -0.07086614173228346400 ) ) ;
#321 = CARTESIAN_POINT ( 'NONE',  ( 0.0000000000000000000, 1.337810122278084300E-015, -10.96456692913386600 ) ) ;
#322 = DIRECTION ( 'NONE',  ( 0.0000000000000000000, 1.000000000000000000, 3.073328992872296400E-016 ) ) ;
#323 = DIRECTION ( 'NONE',  ( -0.0000000000000000000, 3.061515884555943100E-016, -1.000000000000000000 ) ) ;
#324 = DIRECTION ( 'NONE',  ( 0.0000000000000000000, 1.000000000000000000, 3.958014348039772700E-016 ) ) ;
#325 = DIRECTION ( 'NONE',  ( 0.0000000000000000000, 1.000000000000000000, 3.073328992872296400E-016 ) ) ;
#326 = CARTESIAN_POINT ( 'NONE',  ( 0.0000000000000000000, 3.365256830582753600E-017, -0.07874015748031496000 ) ) ;
#327 = DIRECTION ( 'NONE',  ( -0.0000000000000000000, 3.061515884555943100E-016, -1.000000000000000000 ) ) ;
#328 = DIRECTION ( 'NONE',  ( 1.000000000000000000, 0.0000000000000000000, 0.0000000000000000000 ) ) ;
#329 = CARTESIAN_POINT ( 'NONE',  ( 0.0000000000000000000, 3.365256830582753600E-017, -0.07874015748031496000 ) ) ;
#330 = DIRECTION ( 'NONE',  ( 0.0000000000000000000, 0.0000000000000000000, 1.000000000000000000 ) ) ;
#331 = DIRECTION ( 'NONE',  ( 1.000000000000000000, 0.0000000000000000000, -0.0000000000000000000 ) ) ;
#332 = CARTESIAN_POINT ( 'NONE',  ( 0.0000000000000000000, 0.0000000000000000000, -0.07086614173228346400 ) ) ;
#333 = CARTESIAN_POINT ( 'NONE',  ( 0.0000000000000000000, 1.337810122278084300E-015, -10.96456692913386600 ) ) ;
#334 = CARTESIAN_POINT ( 'NONE',  ( 0.0000000000000000000, 3.365256830582755500E-017, -0.07874015748031502900 ) ) ;
#335 = PLANE ( 'NONE',  #231 ) ;
#336 = DIRECTION ( 'NONE',  ( 0.0000000000000000000, 1.000000000000000000, 3.958014348039772700E-016 ) ) ;
#337 = DIRECTION ( 'NONE',  ( -1.000000000000000000, 0.0000000000000000000, 0.0000000000000000000 ) ) ;
#338 = DIRECTION ( 'NONE',  ( -0.0000000000000000000, 3.061515884555943100E-016, -1.000000000000000000 ) ) ;
#339 = DIRECTION ( 'NONE',  ( 0.0000000000000000000, 1.000000000000000000, 3.061515884555943100E-016 ) ) ;
#340 = DIRECTION ( 'NONE',  ( -0.0000000000000000000, -0.0000000000000000000, -1.000000000000000000 ) ) ;
#341 = CARTESIAN_POINT ( 'NONE',  ( 0.0000000000000000000, 0.0000000000000000000, 0.06776933409193008900 ) ) ;
#342 = CARTESIAN_POINT ( 'NONE',  ( 0.0000000000000000000, 1.337810122278084300E-015, -10.96456692913386600 ) ) ;
#343 = DIRECTION ( 'NONE',  ( -1.000000000000000000, 0.0000000000000000000, 0.0000000000000000000 ) ) ;
#344 = DIRECTION ( 'NONE',  ( 0.0000000000000000000, 0.0000000000000000000, 1.000000000000000000 ) ) ;
#345 = CARTESIAN_POINT ( 'NONE',  ( 0.0000000000000000000, 0.0000000000000000000, -0.07086614173228346400 ) ) ;
#346 = DIRECTION ( 'NONE',  ( -0.0000000000000000000, -0.0000000000000000000, -1.000000000000000000 ) ) ;
#347 = CARTESIAN_POINT ( 'NONE',  ( 0.0000000000000000000, 0.4921259842519774000, 0.06776933409193008900 ) ) ;
#348 = EDGE_CURVE ( 'NONE', #195, #200, #268, .T. ) ;
#349 = EDGE_CURVE ( 'NONE', #204, #105, #266, .T. ) ;
#350 = EDGE_CURVE ( 'NONE', #184, #192, #170, .T. ) ;
#351 = ORIENTED_EDGE ( 'NONE', *, *, #361, .T. ) ;
#352 = ORIENTED_EDGE ( 'NONE', *, *, #125, .F. ) ;
#353 = ORIENTED_EDGE ( 'NONE', *, *, #126, .T. ) ;
#354 = ORIENTED_EDGE ( 'NONE', *, *, #211, .F. ) ;
#355 = ORIENTED_EDGE ( 'NONE', *, *, #211, .T. ) ;
#356 = ORIENTED_EDGE ( 'NONE', *, *, #292, .F. ) ;
#357 = ORIENTED_EDGE ( 'NONE', *, *, #210, .F. ) ;
#358 = ORIENTED_EDGE ( 'NONE', *, *, #124, .F. ) ;
#359 = ORIENTED_EDGE ( 'NONE', *, *, #362, .T. ) ;
#360 = CARTESIAN_POINT ( 'NONE',  ( 6.026805113914208900E-017, -0.4921259842519760700, 0.06776933409193008900 ) ) ;
#361 = EDGE_CURVE ( 'NONE', #111, #188, #169, .T. ) ;
#362 = EDGE_CURVE ( 'NONE', #203, #110, #173, .T. ) ;
#363 = ADVANCED_BREP_SHAPE_REPRESENTATION ( 'TTN023917-E0W', ( #279, #238 ), #237 ) ;
#364 = UNCERTAINTY_MEASURE_WITH_UNIT (LENGTH_MEASURE( 1.000000000000000100E-005 ), #24, 'distance_accuracy_value', 'NONE');
ENDSEC;
END-ISO-10303-21;
