ISO-10303-21;
HEADER;
FILE_DESCRIPTION (( 'STEP AP203' ),
    '1' );
FILE_NAME ('Web Model 34467_34475.step',
    '2017-06-14T17:57:30',
    ( '' ),
    ( '' ),
    'SwSTEP 2.0',
    'SolidWorks 2016',
    '' );
FILE_SCHEMA (( 'CONFIG_CONTROL_DESIGN' ));
ENDSEC;

DATA;
#1 = VECTOR ( 'NONE', #129, 1000.000000000000000 ) ;
#2 = DIRECTION ( 'NONE',  ( -1.000000000000000000, 0.0000000000000000000, 0.0000000000000000000 ) ) ;
#3 = CARTESIAN_POINT ( 'NONE',  ( 0.0000000000000000000, 0.0000000000000000000, 0.6250000000000000000 ) ) ;
#4 = LOCAL_TIME ( 13, 57, 30.00000000000000000, #103 ) ;
#5 = EDGE_CURVE ( 'NONE', #120, #154, #92, .T. ) ;
#6 = CARTESIAN_POINT ( 'NONE',  ( 0.0000000000000000000, 0.0000000000000000000, 0.6250000000000000000 ) ) ;
#7 = ORIENTED_EDGE ( 'NONE', *, *, #45, .T. ) ;
#8 = COORDINATED_UNIVERSAL_TIME_OFFSET ( 5, 0, .BEHIND. ) ;
#9 = ADVANCED_BREP_SHAPE_REPRESENTATION ( 'Web Model 34467_34475', ( #139, #108 ), #95 ) ;
#10 = DIRECTION ( 'NONE',  ( 1.000000000000000000, 0.0000000000000000000, 0.0000000000000000000 ) ) ;
#11 = APPROVAL_DATE_TIME ( #62, #168 ) ;
#12 = PERSON_AND_ORGANIZATION ( #18, #25 ) ;
#13 = CALENDAR_DATE ( 2017, 14, 6 ) ;
#14 = CC_DESIGN_PERSON_AND_ORGANIZATION_ASSIGNMENT ( #148, #65, ( #126 ) ) ;
#15 = AXIS2_PLACEMENT_3D ( 'NONE', #89, #161, #134 ) ;
#16 = CC_DESIGN_SECURITY_CLASSIFICATION ( #98, ( #116 ) ) ;
#17 = DIRECTION ( 'NONE',  ( 0.0000000000000000000, 0.0000000000000000000, 1.000000000000000000 ) ) ;
#18 = PERSON ( 'UNSPECIFIED', 'UNSPECIFIED', 'UNSPECIFIED', ('UNSPECIFIED'), ('UNSPECIFIED'), ('UNSPECIFIED') ) ;
#19 = DIRECTION ( 'NONE',  ( 0.0000000000000000000, 0.0000000000000000000, 1.000000000000000000 ) ) ;
#20 = DATE_TIME_ROLE ( 'creation_date' ) ;
#21 = DIRECTION ( 'NONE',  ( 1.000000000000000000, 0.0000000000000000000, -0.0000000000000000000 ) ) ;
#22 = CYLINDRICAL_SURFACE ( 'NONE', #70, 25.00000000000000000 ) ;
#23 = AXIS2_PLACEMENT_3D ( 'NONE', #169, #19, #10 ) ;
#24 = AXIS2_PLACEMENT_3D ( 'NONE', #83, #152, #122 ) ;
#25 = ORGANIZATION ( 'UNSPECIFIED', 'UNSPECIFIED', '' ) ;
#26 = PERSON_AND_ORGANIZATION ( #18, #25 ) ;
#27 = APPROVAL_STATUS ( 'not_yet_approved' ) ;
#28 = ORIENTED_EDGE ( 'NONE', *, *, #5, .T. ) ;
#29 = DIRECTION ( 'NONE',  ( 0.0000000000000000000, 0.0000000000000000000, 1.000000000000000000 ) ) ;
#30 = CARTESIAN_POINT ( 'NONE',  ( 25.00000000000000000, 3.061616997868383000E-015, 0.6250000000000000000 ) ) ;
#31 = APPROVAL_ROLE ( '' ) ;
#32 = SECURITY_CLASSIFICATION_LEVEL ( 'unclassified' ) ;
#33 = EDGE_LOOP ( 'NONE', ( #133, #137 ) ) ;
#34 = ORIENTED_EDGE ( 'NONE', *, *, #45, .F. ) ;
#35 = UNCERTAINTY_MEASURE_WITH_UNIT (LENGTH_MEASURE( 1.000000000000000100E-005 ), #79, 'distance_accuracy_value', 'NONE');
#36 = MECHANICAL_CONTEXT ( 'NONE', #174, 'mechanical' ) ;
#37 = PERSON_AND_ORGANIZATION ( #18, #25 ) ;
#38 = APPROVAL_DATE_TIME ( #104, #50 ) ;
#39 = EDGE_LOOP ( 'NONE', ( #157, #167, #125, #76 ) ) ;
#40 = EDGE_LOOP ( 'NONE', ( #7, #56 ) ) ;
#41 = ADVANCED_FACE ( 'NONE', ( #46 ), #153, .F. ) ;
#42 = APPROVAL_PERSON_ORGANIZATION ( #26, #168, #86 ) ;
#43 = CARTESIAN_POINT ( 'NONE',  ( 0.0000000000000000000, 0.0000000000000000000, 0.6250000000000000000 ) ) ;
#44 = DIRECTION ( 'NONE',  ( 0.0000000000000000000, 0.0000000000000000000, 1.000000000000000000 ) ) ;
#45 = EDGE_CURVE ( 'NONE', #120, #115, #84, .T. ) ;
#46 = FACE_OUTER_BOUND ( 'NONE', #33, .T. ) ;
#47 = APPROVAL_ROLE ( '' ) ;
#48 = LOCAL_TIME ( 13, 57, 30.00000000000000000, #106 ) ;
#49 = APPLICATION_PROTOCOL_DEFINITION ( 'international standard', 'config_control_design', 1994, #174 ) ;
#50 = APPROVAL ( #27, 'UNSPECIFIED' ) ;
#51 = ORIENTED_EDGE ( 'NONE', *, *, #149, .F. ) ;
#52 = PLANE ( 'NONE',  #172 ) ;
#53 = CIRCLE ( 'NONE', #23, 25.00000000000000000 ) ;
#54 = AXIS2_PLACEMENT_3D ( 'NONE', #71, #165, #72 ) ;
#55 = PRODUCT_RELATED_PRODUCT_CATEGORY ( 'detail', '', ( #118 ) ) ;
#56 = ORIENTED_EDGE ( 'NONE', *, *, #173, .T. ) ;
#57 = DATE_TIME_ROLE ( 'classification_date' ) ;
#58 = APPLICATION_PROTOCOL_DEFINITION ( 'international standard', 'config_control_design', 1994, #124 ) ;
#59 = DIRECTION ( 'NONE',  ( 1.000000000000000000, 0.0000000000000000000, 0.0000000000000000000 ) ) ;
#60 = VECTOR ( 'NONE', #155, 1000.000000000000000 ) ;
#61 = LOCAL_TIME ( 13, 57, 30.00000000000000000, #88 ) ;
#62 = DATE_AND_TIME ( #123, #158 ) ;
#63 = CC_DESIGN_APPROVAL ( #136, ( #116 ) ) ;
#64 = DESIGN_CONTEXT ( 'detailed design', #124, 'design' ) ;
#65 = PERSON_AND_ORGANIZATION_ROLE ( 'creator' ) ;
#66 = PERSON_AND_ORGANIZATION_ROLE ( 'design_owner' ) ;
#67 = CC_DESIGN_PERSON_AND_ORGANIZATION_ASSIGNMENT ( #147, #81, ( #116 ) ) ;
#68 = COORDINATED_UNIVERSAL_TIME_OFFSET ( 5, 0, .BEHIND. ) ;
#69 = DIRECTION ( 'NONE',  ( 0.0000000000000000000, 0.0000000000000000000, 1.000000000000000000 ) ) ;
#70 = AXIS2_PLACEMENT_3D ( 'NONE', #3, #75, #2 ) ;
#71 = CARTESIAN_POINT ( 'NONE',  ( 0.0000000000000000000, 0.0000000000000000000, 0.6250000000000000000 ) ) ;
#72 = DIRECTION ( 'NONE',  ( -1.000000000000000000, 0.0000000000000000000, 0.0000000000000000000 ) ) ;
#73 = CARTESIAN_POINT ( 'NONE',  ( -25.00000000000000000, 0.0000000000000000000, -0.6250000000000000000 ) ) ;
#74 =( NAMED_UNIT ( * ) SI_UNIT ( $, .STERADIAN. ) SOLID_ANGLE_UNIT ( ) );
#75 = DIRECTION ( 'NONE',  ( -0.0000000000000000000, -0.0000000000000000000, -1.000000000000000000 ) ) ;
#76 = ORIENTED_EDGE ( 'NONE', *, *, #5, .F. ) ;
#77 = CIRCLE ( 'NONE', #156, 25.00000000000000000 ) ;
#78 = CARTESIAN_POINT ( 'NONE',  ( 25.00000000000000000, 3.061616997868383000E-015, 0.6250000000000000000 ) ) ;
#79 =( LENGTH_UNIT ( ) NAMED_UNIT ( * ) SI_UNIT ( .MILLI., .METRE. ) );
#80 = CALENDAR_DATE ( 2017, 14, 6 ) ;
#81 = PERSON_AND_ORGANIZATION_ROLE ( 'creator' ) ;
#82 = LINE ( 'NONE', #78, #60 ) ;
#83 = CARTESIAN_POINT ( 'NONE',  ( 0.0000000000000000000, 0.0000000000000000000, -0.6250000000000000000 ) ) ;
#84 = CIRCLE ( 'NONE', #110, 25.00000000000000000 ) ;
#85 = CARTESIAN_POINT ( 'NONE',  ( -25.00000000000000000, 0.0000000000000000000, 0.6250000000000000000 ) ) ;
#86 = APPROVAL_ROLE ( '' ) ;
#87 = SHAPE_DEFINITION_REPRESENTATION ( #128, #9 ) ;
#88 = COORDINATED_UNIVERSAL_TIME_OFFSET ( 5, 0, .BEHIND. ) ;
#89 = CARTESIAN_POINT ( 'NONE',  ( 0.0000000000000000000, 0.0000000000000000000, -0.6250000000000000000 ) ) ;
#90 = PERSON_AND_ORGANIZATION_ROLE ( 'classification_officer' ) ;
#91 = CC_DESIGN_PERSON_AND_ORGANIZATION_ASSIGNMENT ( #12, #109, ( #116 ) ) ;
#92 = LINE ( 'NONE', #85, #1 ) ;
#93 = APPROVAL_PERSON_ORGANIZATION ( #150, #50, #47 ) ;
#94 = ADVANCED_FACE ( 'NONE', ( #107 ), #164, .T. ) ;
#95 =( GEOMETRIC_REPRESENTATION_CONTEXT ( 3 ) GLOBAL_UNCERTAINTY_ASSIGNED_CONTEXT ( ( #35 ) ) GLOBAL_UNIT_ASSIGNED_CONTEXT ( ( #79, #119, #74 ) ) REPRESENTATION_CONTEXT ( 'NONE', 'WORKASPACE' ) );
#96 = EDGE_LOOP ( 'NONE', ( #51, #34, #28, #163 ) ) ;
#97 = DATE_AND_TIME ( #112, #143 ) ;
#98 = SECURITY_CLASSIFICATION ( '', '', #32 ) ;
#99 = APPROVAL_DATE_TIME ( #132, #136 ) ;
#100 = DIRECTION ( 'NONE',  ( 1.000000000000000000, 0.0000000000000000000, 0.0000000000000000000 ) ) ;
#101 = PERSON_AND_ORGANIZATION ( #18, #25 ) ;
#102 = CC_DESIGN_PERSON_AND_ORGANIZATION_ASSIGNMENT ( #166, #66, ( #118 ) ) ;
#103 = COORDINATED_UNIVERSAL_TIME_OFFSET ( 5, 0, .BEHIND. ) ;
#104 = DATE_AND_TIME ( #80, #4 ) ;
#105 = VERTEX_POINT ( 'NONE', #117 ) ;
#106 = COORDINATED_UNIVERSAL_TIME_OFFSET ( 5, 0, .BEHIND. ) ;
#107 = FACE_OUTER_BOUND ( 'NONE', #96, .T. ) ;
#108 = AXIS2_PLACEMENT_3D ( 'NONE', #145, #44, #100 ) ;
#109 = PERSON_AND_ORGANIZATION_ROLE ( 'design_supplier' ) ;
#110 = AXIS2_PLACEMENT_3D ( 'NONE', #43, #69, #59 ) ;
#111 = APPROVAL_STATUS ( 'not_yet_approved' ) ;
#112 = CALENDAR_DATE ( 2017, 14, 6 ) ;
#113 = CC_DESIGN_PERSON_AND_ORGANIZATION_ASSIGNMENT ( #101, #90, ( #98 ) ) ;
#114 = CIRCLE ( 'NONE', #15, 25.00000000000000000 ) ;
#115 = VERTEX_POINT ( 'NONE', #30 ) ;
#116 = PRODUCT_DEFINITION_FORMATION_WITH_SPECIFIED_SOURCE ( 'ANY', '', #118, .NOT_KNOWN. ) ;
#117 = CARTESIAN_POINT ( 'NONE',  ( 25.00000000000000000, 3.061616997868383000E-015, -0.6250000000000000000 ) ) ;
#118 = PRODUCT ( 'Web Model 34467_34475', 'Web Model 34467_34475', '', ( #36 ) ) ;
#119 =( NAMED_UNIT ( * ) PLANE_ANGLE_UNIT ( ) SI_UNIT ( $, .RADIAN. ) );
#120 = VERTEX_POINT ( 'NONE', #141 ) ;
#121 = EDGE_CURVE ( 'NONE', #105, #154, #114, .T. ) ;
#122 = DIRECTION ( 'NONE',  ( 1.000000000000000000, 0.0000000000000000000, -0.0000000000000000000 ) ) ;
#123 = CALENDAR_DATE ( 2017, 14, 6 ) ;
#124 = APPLICATION_CONTEXT ( 'configuration controlled 3d designs of mechanical parts and assemblies' ) ;
#125 = ORIENTED_EDGE ( 'NONE', *, *, #121, .T. ) ;
#126 = PRODUCT_DEFINITION ( 'UNKNOWN', '', #116, #64 ) ;
#127 = DIRECTION ( 'NONE',  ( 1.000000000000000000, 0.0000000000000000000, 0.0000000000000000000 ) ) ;
#128 = PRODUCT_DEFINITION_SHAPE ( 'NONE', 'NONE',  #126 ) ;
#129 = DIRECTION ( 'NONE',  ( -0.0000000000000000000, -0.0000000000000000000, -1.000000000000000000 ) ) ;
#130 = FACE_OUTER_BOUND ( 'NONE', #40, .T. ) ;
#131 = CC_DESIGN_DATE_AND_TIME_ASSIGNMENT ( #142, #20, ( #126 ) ) ;
#132 = DATE_AND_TIME ( #140, #48 ) ;
#133 = ORIENTED_EDGE ( 'NONE', *, *, #138, .F. ) ;
#134 = DIRECTION ( 'NONE',  ( 1.000000000000000000, 0.0000000000000000000, 0.0000000000000000000 ) ) ;
#135 = ADVANCED_FACE ( 'NONE', ( #159 ), #22, .T. ) ;
#136 = APPROVAL ( #111, 'UNSPECIFIED' ) ;
#137 = ORIENTED_EDGE ( 'NONE', *, *, #121, .F. ) ;
#138 = EDGE_CURVE ( 'NONE', #154, #105, #53, .T. ) ;
#139 = MANIFOLD_SOLID_BREP ( 'Boss-Extrude1', #146 ) ;
#140 = CALENDAR_DATE ( 2017, 14, 6 ) ;
#141 = CARTESIAN_POINT ( 'NONE',  ( -25.00000000000000000, 0.0000000000000000000, 0.6250000000000000000 ) ) ;
#142 = DATE_AND_TIME ( #13, #61 ) ;
#143 = LOCAL_TIME ( 13, 57, 30.00000000000000000, #8 ) ;
#144 = CC_DESIGN_APPROVAL ( #50, ( #98 ) ) ;
#145 = CARTESIAN_POINT ( 'NONE',  ( 0.0000000000000000000, 0.0000000000000000000, 0.0000000000000000000 ) ) ;
#146 = CLOSED_SHELL ( 'NONE', ( #135, #94, #162, #41 ) ) ;
#147 = PERSON_AND_ORGANIZATION ( #18, #25 ) ;
#148 = PERSON_AND_ORGANIZATION ( #18, #25 ) ;
#149 = EDGE_CURVE ( 'NONE', #115, #105, #82, .T. ) ;
#150 = PERSON_AND_ORGANIZATION ( #18, #25 ) ;
#151 = CC_DESIGN_APPROVAL ( #168, ( #126 ) ) ;
#152 = DIRECTION ( 'NONE',  ( 0.0000000000000000000, 0.0000000000000000000, 1.000000000000000000 ) ) ;
#153 = PLANE ( 'NONE',  #24 ) ;
#154 = VERTEX_POINT ( 'NONE', #73 ) ;
#155 = DIRECTION ( 'NONE',  ( -0.0000000000000000000, -0.0000000000000000000, -1.000000000000000000 ) ) ;
#156 = AXIS2_PLACEMENT_3D ( 'NONE', #6, #29, #127 ) ;
#157 = ORIENTED_EDGE ( 'NONE', *, *, #173, .F. ) ;
#158 = LOCAL_TIME ( 13, 57, 30.00000000000000000, #68 ) ;
#159 = FACE_OUTER_BOUND ( 'NONE', #39, .T. ) ;
#160 = APPROVAL_PERSON_ORGANIZATION ( #37, #136, #31 ) ;
#161 = DIRECTION ( 'NONE',  ( 0.0000000000000000000, 0.0000000000000000000, 1.000000000000000000 ) ) ;
#162 = ADVANCED_FACE ( 'NONE', ( #130 ), #52, .T. ) ;
#163 = ORIENTED_EDGE ( 'NONE', *, *, #138, .T. ) ;
#164 = CYLINDRICAL_SURFACE ( 'NONE', #54, 25.00000000000000000 ) ;
#165 = DIRECTION ( 'NONE',  ( -0.0000000000000000000, -0.0000000000000000000, -1.000000000000000000 ) ) ;
#166 = PERSON_AND_ORGANIZATION ( #18, #25 ) ;
#167 = ORIENTED_EDGE ( 'NONE', *, *, #149, .T. ) ;
#168 = APPROVAL ( #175, 'UNSPECIFIED' ) ;
#169 = CARTESIAN_POINT ( 'NONE',  ( 0.0000000000000000000, 0.0000000000000000000, -0.6250000000000000000 ) ) ;
#170 = CC_DESIGN_DATE_AND_TIME_ASSIGNMENT ( #97, #57, ( #98 ) ) ;
#171 = CARTESIAN_POINT ( 'NONE',  ( 0.0000000000000000000, 0.0000000000000000000, 0.6250000000000000000 ) ) ;
#172 = AXIS2_PLACEMENT_3D ( 'NONE', #171, #17, #21 ) ;
#173 = EDGE_CURVE ( 'NONE', #115, #120, #77, .T. ) ;
#174 = APPLICATION_CONTEXT ( 'configuration controlled 3d designs of mechanical parts and assemblies' ) ;
#175 = APPROVAL_STATUS ( 'not_yet_approved' ) ;
ENDSEC;
END-ISO-10303-21;
