ISO-10303-21;
HEADER;
FILE_DESCRIPTION (( 'STEP AP203' ),
    '1' );
FILE_NAME ('TTN162580-E0W.STEP',
    '2019-10-24T13:58:30',
    ( '' ),
    ( '' ),
    'SwSTEP 2.0',
    'SolidWorks 2018',
    '' );
FILE_SCHEMA (( 'CONFIG_CONTROL_DESIGN' ));
ENDSEC;

DATA;
#1 = ORIENTED_EDGE ( 'NONE', *, *, #275, .T. ) ;
#2 = PRODUCT_DEFINITION ( 'UNKNOWN', '', #30, #238 ) ;
#3 = CARTESIAN_POINT ( 'NONE',  ( 0.9720211765347774868, 1.985923142190417101, 0.4941621581341674729 ) ) ;
#4 = AXIS2_PLACEMENT_3D ( 'NONE', #45, #227, #98 ) ;
#5 = EDGE_CURVE ( 'NONE', #157, #198, #241, .T. ) ;
#6 = DIRECTION ( 'NONE',  ( 0.0000000000000000000, 5.923799415417704456E-17, -1.000000000000000000 ) ) ;
#7 = EDGE_LOOP ( 'NONE', ( #216, #138, #96, #152 ) ) ;
#8 = DIRECTION ( 'NONE',  ( 0.0000000000000000000, 5.923799415417704456E-17, -1.000000000000000000 ) ) ;
#9 = EDGE_CURVE ( 'NONE', #300, #181, #186, .T. ) ;
#10 =( NAMED_UNIT ( * ) PLANE_ANGLE_UNIT ( ) SI_UNIT ( $, .RADIAN. ) );
#11 = APPROVAL_PERSON_ORGANIZATION ( #15, #134, #62 ) ;
#12 = ORIENTED_EDGE ( 'NONE', *, *, #275, .F. ) ;
#13 = AXIS2_PLACEMENT_3D ( 'NONE', #51, #53, #26 ) ;
#14 = DATE_AND_TIME ( #301, #67 ) ;
#15 = PERSON_AND_ORGANIZATION ( #143, #104 ) ;
#16 = CALENDAR_DATE ( 2019, 24, 10 ) ;
#17 = AXIS2_PLACEMENT_3D ( 'NONE', #52, #27, #25 ) ;
#18 = DIRECTION ( 'NONE',  ( 0.0000000000000000000, -1.000000000000000000, 0.0000000000000000000 ) ) ;
#19 = DIRECTION ( 'NONE',  ( 0.0000000000000000000, -1.000000000000000000, 0.0000000000000000000 ) ) ;
#20 = DIRECTION ( 'NONE',  ( 0.0000000000000000000, -1.000000000000000000, 0.0000000000000000000 ) ) ;
#21 = VERTEX_POINT ( 'NONE', #137 ) ;
#22 = ADVANCED_FACE ( 'NONE', ( #136 ), #101, .T. ) ;
#23 = CALENDAR_DATE ( 2019, 24, 10 ) ;
#24 = EDGE_CURVE ( 'NONE', #246, #285, #253, .T. ) ;
#25 = DIRECTION ( 'NONE',  ( 0.0000000000000000000, -1.000000000000000000, 0.0000000000000000000 ) ) ;
#26 = DIRECTION ( 'NONE',  ( 0.0000000000000000000, 1.000000000000000000, 0.0000000000000000000 ) ) ;
#27 = DIRECTION ( 'NONE',  ( -0.0000000000000000000, -5.923799415417704456E-17, 1.000000000000000000 ) ) ;
#28 = APPROVAL_PERSON_ORGANIZATION ( #119, #131, #56 ) ;
#29 = DIRECTION ( 'NONE',  ( 0.0000000000000000000, 0.0000000000000000000, 1.000000000000000000 ) ) ;
#30 = PRODUCT_DEFINITION_FORMATION_WITH_SPECIFIED_SOURCE ( 'ANY', '', #121, .NOT_KNOWN. ) ;
#31 = PERSON_AND_ORGANIZATION_ROLE ( 'creator' ) ;
#32 = EDGE_LOOP ( 'NONE', ( #12, #195, #112, #108 ) ) ;
#33 = ORIENTED_EDGE ( 'NONE', *, *, #176, .F. ) ;
#34 = APPROVAL_DATE_TIME ( #103, #134 ) ;
#35 = CARTESIAN_POINT ( 'NONE',  ( 0.9720211765347777089, 3.435923142190417057, 2.095162158134167285 ) ) ;
#36 = EDGE_CURVE ( 'NONE', #300, #65, #58, .T. ) ;
#37 = ORIENTED_EDGE ( 'NONE', *, *, #110, .F. ) ;
#38 = EDGE_LOOP ( 'NONE', ( #218, #1 ) ) ;
#39 = CC_DESIGN_SECURITY_CLASSIFICATION ( #154, ( #30 ) ) ;
#40 = CARTESIAN_POINT ( 'NONE',  ( 0.9720211765347774868, 1.985923142190417101, 2.145162158134167996 ) ) ;
#41 = ORIENTED_EDGE ( 'NONE', *, *, #202, .F. ) ;
#42 = CLOSED_SHELL ( 'NONE', ( #74, #76, #165, #105, #54, #22, #249, #123, #102 ) ) ;
#43 = APPROVAL_PERSON_ORGANIZATION ( #265, #280, #87 ) ;
#44 = CARTESIAN_POINT ( 'NONE',  ( 0.9720211765347774868, 1.985923142190417101, 0.4941621581341674729 ) ) ;
#45 = CARTESIAN_POINT ( 'NONE',  ( 0.9720211765347774868, 1.985923142190417101, 0.4941621581341674729 ) ) ;
#46 = AXIS2_PLACEMENT_3D ( 'NONE', #173, #29, #153 ) ;
#47 = CIRCLE ( 'NONE', #299, 1.500000000000000222 ) ;
#48 = CARTESIAN_POINT ( 'NONE',  ( 0.9720211765347774868, 1.985923142190417101, 3.185275253210690938 ) ) ;
#49 = CIRCLE ( 'NONE', #66, 1.500000000000000222 ) ;
#50 = DIRECTION ( 'NONE',  ( -1.000000000000000000, 1.224646799147353207E-16, 7.254561992882253793E-33 ) ) ;
#51 = CARTESIAN_POINT ( 'NONE',  ( 0.9720211765347774868, 1.985923142190417101, 3.185275253210690938 ) ) ;
#52 = CARTESIAN_POINT ( 'NONE',  ( 0.9720211765347774868, 1.985923142190417101, 3.185275253210690938 ) ) ;
#53 = DIRECTION ( 'NONE',  ( 0.0000000000000000000, 5.923799415417704456E-17, -1.000000000000000000 ) ) ;
#54 = ADVANCED_FACE ( 'NONE', ( #144 ), #201, .F. ) ;
#55 = COORDINATED_UNIVERSAL_TIME_OFFSET ( 5, 0, .BEHIND. ) ;
#56 = APPROVAL_ROLE ( '' ) ;
#57 = FACE_OUTER_BOUND ( 'NONE', #7, .T. ) ;
#58 = CIRCLE ( 'NONE', #4, 3.100999999999999979 ) ;
#59 = DATE_TIME_ROLE ( 'creation_date' ) ;
#60 = CONICAL_SURFACE ( 'NONE', #117, 1.500000000000000444, 0.7853981633974461696 ) ;
#61 = CARTESIAN_POINT ( 'NONE',  ( 0.9720211765347774868, 0.4859231421904168791, 3.595162158134167285 ) ) ;
#62 = APPROVAL_ROLE ( '' ) ;
#63 = LINE ( 'NONE', #146, #172 ) ;
#64 = EDGE_LOOP ( 'NONE', ( #41, #269, #91, #220 ) ) ;
#65 = VERTEX_POINT ( 'NONE', #97 ) ;
#66 = AXIS2_PLACEMENT_3D ( 'NONE', #111, #171, #132 ) ;
#67 = LOCAL_TIME ( 9, 58, 30.00000000000000000, #141 ) ;
#68 = EDGE_LOOP ( 'NONE', ( #84, #234, #243 ) ) ;
#69 = DIRECTION ( 'NONE',  ( 0.0000000000000000000, 0.7071067811865460184, -0.7071067811865489050 ) ) ;
#70 = CIRCLE ( 'NONE', #242, 3.100999999999999979 ) ;
#71 = DIRECTION ( 'NONE',  ( -0.0000000000000000000, -5.923799415417704456E-17, 1.000000000000000000 ) ) ;
#72 = EDGE_CURVE ( 'NONE', #181, #300, #135, .T. ) ;
#73 = DIRECTION ( 'NONE',  ( 0.0000000000000000000, -1.000000000000000000, 0.0000000000000000000 ) ) ;
#74 = ADVANCED_FACE ( 'NONE', ( #169 ), #189, .T. ) ;
#75 = AXIS2_PLACEMENT_3D ( 'NONE', #248, #200, #223 ) ;
#76 = ADVANCED_FACE ( 'NONE', ( #268 ), #272, .T. ) ;
#77 = VECTOR ( 'NONE', #69, 1000.000000000000114 ) ;
#78 = CARTESIAN_POINT ( 'NONE',  ( 0.9720211765347774868, 1.985923142190417101, 3.595162158134167285 ) ) ;
#79 = EDGE_CURVE ( 'NONE', #21, #208, #47, .T. ) ;
#80 = LOCAL_TIME ( 9, 58, 30.00000000000000000, #217 ) ;
#81 = CARTESIAN_POINT ( 'NONE',  ( 0.9720211765347777089, 3.485923142190417767, 2.145162158134167552 ) ) ;
#82 = CARTESIAN_POINT ( 'NONE',  ( 0.9720211765347777089, 0.5359231421904168124, 3.235275253210691204 ) ) ;
#83 = CIRCLE ( 'NONE', #17, 1.500000000000000222 ) ;
#84 = ORIENTED_EDGE ( 'NONE', *, *, #9, .T. ) ;
#85 = CC_DESIGN_DATE_AND_TIME_ASSIGNMENT ( #133, #59, ( #2 ) ) ;
#86 = SECURITY_CLASSIFICATION_LEVEL ( 'unclassified' ) ;
#87 = APPROVAL_ROLE ( '' ) ;
#88 = VECTOR ( 'NONE', #259, 1000.000000000000114 ) ;
#89 = LOCAL_TIME ( 9, 58, 30.00000000000000000, #55 ) ;
#90 = CC_DESIGN_APPROVAL ( #134, ( #2 ) ) ;
#91 = ORIENTED_EDGE ( 'NONE', *, *, #94, .T. ) ;
#92 = ADVANCED_BREP_SHAPE_REPRESENTATION ( 'TTN162580-E0W', ( #174, #46 ), #247 ) ;
#93 = DIRECTION ( 'NONE',  ( -0.0000000000000000000, -5.923799415417704456E-17, 1.000000000000000000 ) ) ;
#94 = EDGE_CURVE ( 'NONE', #300, #208, #266, .T. ) ;
#95 = CARTESIAN_POINT ( 'NONE',  ( 0.9720211765347774868, 1.985923142190417101, 3.235275253210691204 ) ) ;
#96 = ORIENTED_EDGE ( 'NONE', *, *, #79, .F. ) ;
#97 = CARTESIAN_POINT ( 'NONE',  ( 0.9720211765347774868, 1.985923142190417101, 3.595162158134167285 ) ) ;
#98 = DIRECTION ( 'NONE',  ( 0.0000000000000000000, 0.0000000000000000000, -1.000000000000000000 ) ) ;
#99 = AXIS2_PLACEMENT_3D ( 'NONE', #78, #126, #183 ) ;
#100 = DIRECTION ( 'NONE',  ( 0.0000000000000000000, -1.000000000000000000, -5.923799415417704456E-17 ) ) ;
#101 = CYLINDRICAL_SURFACE ( 'NONE', #182, 1.500000000000000222 ) ;
#102 = ADVANCED_FACE ( 'NONE', ( #140 ), #156, .T. ) ;
#103 = DATE_AND_TIME ( #158, #298 ) ;
#104 = ORGANIZATION ( 'UNSPECIFIED', 'UNSPECIFIED', '' ) ;
#105 = ADVANCED_FACE ( 'NONE', ( #57 ), #293, .T. ) ;
#106 = DIRECTION ( 'NONE',  ( 0.0000000000000000000, -0.7071067811865474617, 0.7071067811865474617 ) ) ;
#107 = CARTESIAN_POINT ( 'NONE',  ( 0.9720211765347777089, 3.485923142190417767, 3.185275253210690938 ) ) ;
#108 = ORIENTED_EDGE ( 'NONE', *, *, #127, .F. ) ;
#109 = CARTESIAN_POINT ( 'NONE',  ( 0.9720211765347777089, 3.485923142190417767, 3.595162158134167285 ) ) ;
#110 = EDGE_CURVE ( 'NONE', #208, #21, #83, .T. ) ;
#111 = CARTESIAN_POINT ( 'NONE',  ( 0.9720211765347774868, 1.985923142190417101, 2.145162158134167996 ) ) ;
#112 = ORIENTED_EDGE ( 'NONE', *, *, #292, .F. ) ;
#113 = DATE_TIME_ROLE ( 'classification_date' ) ;
#114 = CC_DESIGN_APPROVAL ( #280, ( #30 ) ) ;
#115 = ORIENTED_EDGE ( 'NONE', *, *, #24, .F. ) ;
#116 = PERSON_AND_ORGANIZATION ( #143, #104 ) ;
#117 = AXIS2_PLACEMENT_3D ( 'NONE', #254, #6, #130 ) ;
#118 = LINE ( 'NONE', #61, #283 ) ;
#119 = PERSON_AND_ORGANIZATION ( #143, #104 ) ;
#120 = DIRECTION ( 'NONE',  ( -1.000000000000000000, 0.0000000000000000000, 0.0000000000000000000 ) ) ;
#121 = PRODUCT ( 'TTN162580-E0W', 'TTN162580-E0W', '', ( #190 ) ) ;
#122 = CARTESIAN_POINT ( 'NONE',  ( 0.9720211765347774868, 1.985923142190417101, 2.145162158134167552 ) ) ;
#123 = ADVANCED_FACE ( 'NONE', ( #225 ), #277, .T. ) ;
#124 = FACE_OUTER_BOUND ( 'NONE', #64, .T. ) ;
#125 = ORIENTED_EDGE ( 'NONE', *, *, #94, .F. ) ;
#126 = DIRECTION ( 'NONE',  ( -0.0000000000000000000, -5.923799415417704456E-17, 1.000000000000000000 ) ) ;
#127 = EDGE_CURVE ( 'NONE', #246, #198, #161, .T. ) ;
#128 = PERSON_AND_ORGANIZATION_ROLE ( 'design_supplier' ) ;
#129 = VECTOR ( 'NONE', #286, 1000.000000000000000 ) ;
#130 = DIRECTION ( 'NONE',  ( 0.0000000000000000000, 1.000000000000000000, 0.0000000000000000000 ) ) ;
#131 = APPROVAL ( #262, 'UNSPECIFIED' ) ;
#132 = DIRECTION ( 'NONE',  ( 0.0000000000000000000, -1.000000000000000000, 0.0000000000000000000 ) ) ;
#133 = DATE_AND_TIME ( #23, #184 ) ;
#134 = APPROVAL ( #187, 'UNSPECIFIED' ) ;
#135 = CIRCLE ( 'NONE', #191, 1.450000000000000400 ) ;
#136 = FACE_OUTER_BOUND ( 'NONE', #255, .T. ) ;
#137 = CARTESIAN_POINT ( 'NONE',  ( 0.9720211765347774868, 0.4859231421904168791, 3.185275253210690938 ) ) ;
#138 = ORIENTED_EDGE ( 'NONE', *, *, #194, .T. ) ;
#139 = DIRECTION ( 'NONE',  ( -0.0000000000000000000, -5.923799415417704456E-17, 1.000000000000000000 ) ) ;
#140 = FACE_OUTER_BOUND ( 'NONE', #162, .T. ) ;
#141 = COORDINATED_UNIVERSAL_TIME_OFFSET ( 5, 0, .BEHIND. ) ;
#142 = AXIS2_PLACEMENT_3D ( 'NONE', #180, #222, #100 ) ;
#143 = PERSON ( 'UNSPECIFIED', 'UNSPECIFIED', 'UNSPECIFIED', ('UNSPECIFIED'), ('UNSPECIFIED'), ('UNSPECIFIED') ) ;
#144 = FACE_OUTER_BOUND ( 'NONE', #38, .T. ) ;
#145 = CARTESIAN_POINT ( 'NONE',  ( 0.9720211765347774868, 0.5359231421904170345, 2.095162158134167285 ) ) ;
#146 = CARTESIAN_POINT ( 'NONE',  ( 0.9720211765347777089, 0.4859231421904168791, 3.185275253210690938 ) ) ;
#147 = ORIENTED_EDGE ( 'NONE', *, *, #5, .T. ) ;
#148 = AXIS2_PLACEMENT_3D ( 'NONE', #164, #232, #167 ) ;
#149 = APPLICATION_PROTOCOL_DEFINITION ( 'international standard', 'config_control_design', 1994, #212 ) ;
#150 = APPLICATION_CONTEXT ( 'configuration controlled 3d designs of mechanical parts and assemblies' ) ;
#151 = FACE_OUTER_BOUND ( 'NONE', #288, .T. ) ;
#152 = ORIENTED_EDGE ( 'NONE', *, *, #296, .F. ) ;
#153 = DIRECTION ( 'NONE',  ( 1.000000000000000000, 0.0000000000000000000, 0.0000000000000000000 ) ) ;
#154 = SECURITY_CLASSIFICATION ( '', '', #86 ) ;
#155 = AXIS2_PLACEMENT_3D ( 'NONE', #159, #139, #199 ) ;
#156 = CONICAL_SURFACE ( 'NONE', #155, 1.500000000000000222, 0.7853981633974482790 ) ;
#157 = VERTEX_POINT ( 'NONE', #209 ) ;
#158 = CALENDAR_DATE ( 2019, 24, 10 ) ;
#159 = CARTESIAN_POINT ( 'NONE',  ( 0.9720211765347774868, 1.985923142190417101, 2.145162158134167552 ) ) ;
#160 = AXIS2_PLACEMENT_3D ( 'NONE', #224, #273, #20 ) ;
#161 = LINE ( 'NONE', #257, #251 ) ;
#162 = EDGE_LOOP ( 'NONE', ( #279, #115, #263, #192 ) ) ;
#163 = COORDINATED_UNIVERSAL_TIME_OFFSET ( 5, 0, .BEHIND. ) ;
#164 = CARTESIAN_POINT ( 'NONE',  ( 0.9720211765347774868, 1.985923142190417101, 0.4941621581341674729 ) ) ;
#165 = ADVANCED_FACE ( 'NONE', ( #151 ), #258, .T. ) ;
#166 = EDGE_CURVE ( 'NONE', #285, #157, #203, .T. ) ;
#167 = DIRECTION ( 'NONE',  ( 0.0000000000000000000, 1.000000000000000000, 6.992597049245432859E-17 ) ) ;
#168 =( NAMED_UNIT ( * ) SI_UNIT ( $, .STERADIAN. ) SOLID_ANGLE_UNIT ( ) );
#169 = FACE_OUTER_BOUND ( 'NONE', #32, .T. ) ;
#170 = PERSON_AND_ORGANIZATION_ROLE ( 'design_owner' ) ;
#171 = DIRECTION ( 'NONE',  ( -0.0000000000000000000, -5.923799415417704456E-17, 1.000000000000000000 ) ) ;
#172 = VECTOR ( 'NONE', #281, 1000.000000000000114 ) ;
#173 = CARTESIAN_POINT ( 'NONE',  ( 0.0000000000000000000, 0.0000000000000000000, 0.0000000000000000000 ) ) ;
#174 = MANIFOLD_SOLID_BREP ( 'TTN162263-1-solid1', #42 ) ;
#175 = AXIS2_PLACEMENT_3D ( 'NONE', #289, #8, #214 ) ;
#176 = EDGE_CURVE ( 'NONE', #181, #65, #70, .T. ) ;
#177 = PERSON_AND_ORGANIZATION ( #143, #104 ) ;
#178 = DIRECTION ( 'NONE',  ( 0.0000000000000000000, 1.000000000000000000, 6.992597049245432859E-17 ) ) ;
#179 = LINE ( 'NONE', #109, #129 ) ;
#180 = CARTESIAN_POINT ( 'NONE',  ( 0.9720211765347774868, 1.985923142190417101, 2.095162158134167285 ) ) ;
#181 = VERTEX_POINT ( 'NONE', #82 ) ;
#182 = AXIS2_PLACEMENT_3D ( 'NONE', #295, #297, #18 ) ;
#183 = DIRECTION ( 'NONE',  ( 0.0000000000000000000, -1.000000000000000000, 0.0000000000000000000 ) ) ;
#184 = LOCAL_TIME ( 9, 58, 30.00000000000000000, #205 ) ;
#185 = APPROVAL_DATE_TIME ( #260, #280 ) ;
#186 = CIRCLE ( 'NONE', #160, 1.450000000000000400 ) ;
#187 = APPROVAL_STATUS ( 'not_yet_approved' ) ;
#188 = PERSON_AND_ORGANIZATION_ROLE ( 'classification_officer' ) ;
#189 = CONICAL_SURFACE ( 'NONE', #206, 1.500000000000000222, 0.7853981633974482790 ) ;
#190 = MECHANICAL_CONTEXT ( 'NONE', #212, 'mechanical' ) ;
#191 = AXIS2_PLACEMENT_3D ( 'NONE', #95, #71, #278 ) ;
#192 = ORIENTED_EDGE ( 'NONE', *, *, #5, .F. ) ;
#193 = CIRCLE ( 'NONE', #175, 1.450000000000000178 ) ;
#194 = EDGE_CURVE ( 'NONE', #157, #208, #179, .T. ) ;
#195 = ORIENTED_EDGE ( 'NONE', *, *, #166, .T. ) ;
#196 = PERSON_AND_ORGANIZATION ( #143, #104 ) ;
#197 = CC_DESIGN_PERSON_AND_ORGANIZATION_ASSIGNMENT ( #196, #188, ( #154 ) ) ;
#198 = VERTEX_POINT ( 'NONE', #230 ) ;
#199 = DIRECTION ( 'NONE',  ( 0.0000000000000000000, -1.000000000000000000, 0.0000000000000000000 ) ) ;
#200 = DIRECTION ( 'NONE',  ( 0.0000000000000000000, 5.923799415417704456E-17, -1.000000000000000000 ) ) ;
#201 = PLANE ( 'NONE',  #142 ) ;
#202 = EDGE_CURVE ( 'NONE', #181, #21, #63, .T. ) ;
#203 = LINE ( 'NONE', #81, #88 ) ;
#204 = ORIENTED_EDGE ( 'NONE', *, *, #194, .F. ) ;
#205 = COORDINATED_UNIVERSAL_TIME_OFFSET ( 5, 0, .BEHIND. ) ;
#206 = AXIS2_PLACEMENT_3D ( 'NONE', #122, #276, #244 ) ;
#207 = DIRECTION ( 'NONE',  ( -1.398519409849086572E-16, -1.000000000000000000, 0.0000000000000000000 ) ) ;
#208 = VERTEX_POINT ( 'NONE', #107 ) ;
#209 = CARTESIAN_POINT ( 'NONE',  ( 0.9720211765347777089, 3.485923142190417767, 2.145162158134167996 ) ) ;
#210 = PERSON_AND_ORGANIZATION_ROLE ( 'creator' ) ;
#211 = ORIENTED_EDGE ( 'NONE', *, *, #36, .T. ) ;
#212 = APPLICATION_CONTEXT ( 'configuration controlled 3d designs of mechanical parts and assemblies' ) ;
#213 = PERSON_AND_ORGANIZATION ( #143, #104 ) ;
#214 = DIRECTION ( 'NONE',  ( 0.0000000000000000000, -1.000000000000000000, 0.0000000000000000000 ) ) ;
#215 = ORIENTED_EDGE ( 'NONE', *, *, #296, .T. ) ;
#216 = ORIENTED_EDGE ( 'NONE', *, *, #292, .T. ) ;
#217 = COORDINATED_UNIVERSAL_TIME_OFFSET ( 5, 0, .BEHIND. ) ;
#218 = ORIENTED_EDGE ( 'NONE', *, *, #24, .T. ) ;
#219 = CC_DESIGN_PERSON_AND_ORGANIZATION_ASSIGNMENT ( #270, #31, ( #2 ) ) ;
#220 = ORIENTED_EDGE ( 'NONE', *, *, #110, .T. ) ;
#221 = CC_DESIGN_PERSON_AND_ORGANIZATION_ASSIGNMENT ( #177, #210, ( #30 ) ) ;
#222 = DIRECTION ( 'NONE',  ( 0.0000000000000000000, -5.923799415417704456E-17, 1.000000000000000000 ) ) ;
#223 = DIRECTION ( 'NONE',  ( 0.0000000000000000000, -1.000000000000000000, 0.0000000000000000000 ) ) ;
#224 = CARTESIAN_POINT ( 'NONE',  ( 0.9720211765347774868, 1.985923142190417101, 3.235275253210691204 ) ) ;
#225 = FACE_OUTER_BOUND ( 'NONE', #294, .T. ) ;
#226 = AXIS2_PLACEMENT_3D ( 'NONE', #44, #120, #178 ) ;
#227 = DIRECTION ( 'NONE',  ( 1.000000000000000000, 0.0000000000000000000, 0.0000000000000000000 ) ) ;
#228 = ORIENTED_EDGE ( 'NONE', *, *, #72, .T. ) ;
#229 = ORIENTED_EDGE ( 'NONE', *, *, #79, .T. ) ;
#230 = CARTESIAN_POINT ( 'NONE',  ( 0.9720211765347774868, 0.4859231421904168791, 2.145162158134167996 ) ) ;
#231 = DATE_AND_TIME ( #16, #89 ) ;
#232 = DIRECTION ( 'NONE',  ( -1.000000000000000000, 0.0000000000000000000, 0.0000000000000000000 ) ) ;
#233 = CC_DESIGN_PERSON_AND_ORGANIZATION_ASSIGNMENT ( #116, #128, ( #30 ) ) ;
#234 = ORIENTED_EDGE ( 'NONE', *, *, #176, .T. ) ;
#235 = AXIS2_PLACEMENT_3D ( 'NONE', #40, #93, #73 ) ;
#236 = APPLICATION_PROTOCOL_DEFINITION ( 'international standard', 'config_control_design', 1994, #150 ) ;
#237 = CC_DESIGN_DATE_AND_TIME_ASSIGNMENT ( #14, #113, ( #154 ) ) ;
#238 = DESIGN_CONTEXT ( 'detailed design', #150, 'design' ) ;
#239 = CC_DESIGN_APPROVAL ( #131, ( #154 ) ) ;
#240 = CALENDAR_DATE ( 2019, 24, 10 ) ;
#241 = CIRCLE ( 'NONE', #235, 1.500000000000000222 ) ;
#242 = AXIS2_PLACEMENT_3D ( 'NONE', #3, #50, #207 ) ;
#243 = ORIENTED_EDGE ( 'NONE', *, *, #36, .F. ) ;
#244 = DIRECTION ( 'NONE',  ( 0.0000000000000000000, -1.000000000000000000, 0.0000000000000000000 ) ) ;
#245 = UNCERTAINTY_MEASURE_WITH_UNIT (LENGTH_MEASURE( 1.000000000000000082E-05 ), #290, 'distance_accuracy_value', 'NONE');
#246 = VERTEX_POINT ( 'NONE', #145 ) ;
#247 =( GEOMETRIC_REPRESENTATION_CONTEXT ( 3 ) GLOBAL_UNCERTAINTY_ASSIGNED_CONTEXT ( ( #245 ) ) GLOBAL_UNIT_ASSIGNED_CONTEXT ( ( #290, #10, #168 ) ) REPRESENTATION_CONTEXT ( 'NONE', 'WORKASPACE' ) );
#248 = CARTESIAN_POINT ( 'NONE',  ( 0.9720211765347774868, 1.985923142190417101, 2.095162158134167285 ) ) ;
#249 = ADVANCED_FACE ( 'NONE', ( #124 ), #60, .T. ) ;
#250 = CARTESIAN_POINT ( 'NONE',  ( 0.9720211765347774868, 3.485923142190417767, 3.185275253210690938 ) ) ;
#251 = VECTOR ( 'NONE', #106, 1000.000000000000114 ) ;
#252 = PRODUCT_DEFINITION_SHAPE ( 'NONE', 'NONE',  #2 ) ;
#253 = CIRCLE ( 'NONE', #75, 1.450000000000000178 ) ;
#254 = CARTESIAN_POINT ( 'NONE',  ( 0.9720211765347774868, 1.985923142190417101, 3.185275253210690938 ) ) ;
#255 = EDGE_LOOP ( 'NONE', ( #204, #147, #215, #37 ) ) ;
#256 = PRODUCT_RELATED_PRODUCT_CATEGORY ( 'detail', '', ( #121 ) ) ;
#257 = CARTESIAN_POINT ( 'NONE',  ( 0.9720211765347774868, 0.4859231421904168791, 2.145162158134167552 ) ) ;
#258 = CONICAL_SURFACE ( 'NONE', #13, 1.500000000000000444, 0.7853981633974461696 ) ;
#259 = DIRECTION ( 'NONE',  ( 8.659560562354932858E-17, 0.7071067811865474617, 0.7071067811865474617 ) ) ;
#260 = DATE_AND_TIME ( #240, #80 ) ;
#261 = APPROVAL_STATUS ( 'not_yet_approved' ) ;
#262 = APPROVAL_STATUS ( 'not_yet_approved' ) ;
#263 = ORIENTED_EDGE ( 'NONE', *, *, #127, .T. ) ;
#264 = CARTESIAN_POINT ( 'NONE',  ( 0.9720211765347774868, 3.435923142190417501, 3.235275253210691204 ) ) ;
#265 = PERSON_AND_ORGANIZATION ( #143, #104 ) ;
#266 = LINE ( 'NONE', #250, #77 ) ;
#267 = APPROVAL_DATE_TIME ( #231, #131 ) ;
#268 = FACE_OUTER_BOUND ( 'NONE', #68, .T. ) ;
#269 = ORIENTED_EDGE ( 'NONE', *, *, #9, .F. ) ;
#270 = PERSON_AND_ORGANIZATION ( #143, #104 ) ;
#271 = CC_DESIGN_PERSON_AND_ORGANIZATION_ASSIGNMENT ( #213, #170, ( #121 ) ) ;
#272 = SPHERICAL_SURFACE ( 'NONE', #226, 3.100999999999999979 ) ;
#273 = DIRECTION ( 'NONE',  ( -0.0000000000000000000, -5.923799415417704456E-17, 1.000000000000000000 ) ) ;
#274 = DIRECTION ( 'NONE',  ( -0.0000000000000000000, -5.923799415417704456E-17, 1.000000000000000000 ) ) ;
#275 = EDGE_CURVE ( 'NONE', #285, #246, #193, .T. ) ;
#276 = DIRECTION ( 'NONE',  ( -0.0000000000000000000, -5.923799415417704456E-17, 1.000000000000000000 ) ) ;
#277 = SPHERICAL_SURFACE ( 'NONE', #148, 3.100999999999999979 ) ;
#278 = DIRECTION ( 'NONE',  ( 0.0000000000000000000, -1.000000000000000000, 0.0000000000000000000 ) ) ;
#279 = ORIENTED_EDGE ( 'NONE', *, *, #166, .F. ) ;
#280 = APPROVAL ( #261, 'UNSPECIFIED' ) ;
#281 = DIRECTION ( 'NONE',  ( 8.659560562354913137E-17, -0.7071067811865460184, -0.7071067811865489050 ) ) ;
#282 = SHAPE_DEFINITION_REPRESENTATION ( #252, #92 ) ;
#283 = VECTOR ( 'NONE', #287, 1000.000000000000000 ) ;
#284 = ORIENTED_EDGE ( 'NONE', *, *, #202, .T. ) ;
#285 = VERTEX_POINT ( 'NONE', #35 ) ;
#286 = DIRECTION ( 'NONE',  ( -0.0000000000000000000, -5.923799415417704456E-17, 1.000000000000000000 ) ) ;
#287 = DIRECTION ( 'NONE',  ( -0.0000000000000000000, -5.923799415417704456E-17, 1.000000000000000000 ) ) ;
#288 = EDGE_LOOP ( 'NONE', ( #291, #284, #229, #125 ) ) ;
#289 = CARTESIAN_POINT ( 'NONE',  ( 0.9720211765347774868, 1.985923142190417101, 2.095162158134167285 ) ) ;
#290 =( LENGTH_UNIT ( ) NAMED_UNIT ( * ) SI_UNIT ( .MILLI., .METRE. ) );
#291 = ORIENTED_EDGE ( 'NONE', *, *, #72, .F. ) ;
#292 = EDGE_CURVE ( 'NONE', #198, #157, #49, .T. ) ;
#293 = CYLINDRICAL_SURFACE ( 'NONE', #99, 1.500000000000000222 ) ;
#294 = EDGE_LOOP ( 'NONE', ( #33, #228, #211 ) ) ;
#295 = CARTESIAN_POINT ( 'NONE',  ( 0.9720211765347774868, 1.985923142190417101, 3.595162158134167285 ) ) ;
#296 = EDGE_CURVE ( 'NONE', #198, #21, #118, .T. ) ;
#297 = DIRECTION ( 'NONE',  ( -0.0000000000000000000, -5.923799415417704456E-17, 1.000000000000000000 ) ) ;
#298 = LOCAL_TIME ( 9, 58, 30.00000000000000000, #163 ) ;
#299 = AXIS2_PLACEMENT_3D ( 'NONE', #48, #274, #19 ) ;
#300 = VERTEX_POINT ( 'NONE', #264 ) ;
#301 = CALENDAR_DATE ( 2019, 24, 10 ) ;
ENDSEC;
END-ISO-10303-21;
