ISO-10303-21;
HEADER;
FILE_DESCRIPTION (( 'STEP AP203' ),
    '1' );
FILE_NAME ('Web Model 20207_20212.step',
    '2022-03-01T15:54:51',
    ( '' ),
    ( '' ),
    'SwSTEP 2.0',
    'SolidWorks 2021',
    '' );
FILE_SCHEMA (( 'CONFIG_CONTROL_DESIGN' ));
ENDSEC;

DATA;
#1 = CIRCLE ( 'NONE', #52, 12.50000000000000000 ) ;
#2 = DIRECTION ( 'NONE',  ( -0.000000000000000000, -0.000000000000000000, -1.000000000000000000 ) ) ;
#3 = DIRECTION ( 'NONE',  ( 1.000000000000000000, 0.000000000000000000, -0.000000000000000000 ) ) ;
#4 = CARTESIAN_POINT ( 'NONE',  ( -12.50000000000000000, 0.000000000000000000, 0.1000000000000000056 ) ) ;
#5 = ORIENTED_EDGE ( 'NONE', *, *, #68, .F. ) ;
#6 = COORDINATED_UNIVERSAL_TIME_OFFSET ( 5, 0, .BEHIND. ) ;
#7 = APPROVAL_PERSON_ORGANIZATION ( #92, #32, #168 ) ;
#8 = CALENDAR_DATE ( 2022, 1, 3 ) ;
#9 = APPROVAL_ROLE ( '' ) ;
#10 = EDGE_CURVE ( 'NONE', #134, #111, #1, .T. ) ;
#11 = PLANE ( 'NONE',  #161 ) ;
#12 = PLANE ( 'NONE',  #79 ) ;
#13 = AXIS2_PLACEMENT_3D ( 'NONE', #29, #122, #101 ) ;
#14 = CC_DESIGN_PERSON_AND_ORGANIZATION_ASSIGNMENT ( #35, #131, ( #141 ) ) ;
#15 = CC_DESIGN_PERSON_AND_ORGANIZATION_ASSIGNMENT ( #106, #108, ( #127 ) ) ;
#16 = FACE_OUTER_BOUND ( 'NONE', #160, .T. ) ;
#17 = ORIENTED_EDGE ( 'NONE', *, *, #75, .F. ) ;
#18 = DIRECTION ( 'NONE',  ( 0.000000000000000000, 0.000000000000000000, 1.000000000000000000 ) ) ;
#19 = VECTOR ( 'NONE', #142, 1000.000000000000000 ) ;
#20 = COORDINATED_UNIVERSAL_TIME_OFFSET ( 5, 0, .BEHIND. ) ;
#21 = DATE_TIME_ROLE ( 'creation_date' ) ;
#22 = CC_DESIGN_APPROVAL ( #32, ( #127 ) ) ;
#23 = CALENDAR_DATE ( 2022, 1, 3 ) ;
#24 = AXIS2_PLACEMENT_3D ( 'NONE', #175, #2, #72 ) ;
#25 = ORIENTED_EDGE ( 'NONE', *, *, #75, .T. ) ;
#26 = LINE ( 'NONE', #109, #19 ) ;
#27 = DIRECTION ( 'NONE',  ( -0.000000000000000000, -0.000000000000000000, -1.000000000000000000 ) ) ;
#28 = EDGE_CURVE ( 'NONE', #43, #70, #148, .T. ) ;
#29 = CARTESIAN_POINT ( 'NONE',  ( 0.000000000000000000, 0.000000000000000000, 0.000000000000000000 ) ) ;
#30 = CC_DESIGN_SECURITY_CLASSIFICATION ( #120, ( #127 ) ) ;
#31 =( LENGTH_UNIT ( ) NAMED_UNIT ( * ) SI_UNIT ( .MILLI., .METRE. ) );
#32 = APPROVAL ( #147, 'UNSPECIFIED' ) ;
#33 = ADVANCED_BREP_SHAPE_REPRESENTATION ( 'Web Model 20207_20212', ( #87, #39 ), #135 ) ;
#34 = APPROVAL_STATUS ( 'not_yet_approved' ) ;
#35 = PERSON_AND_ORGANIZATION ( #94, #173 ) ;
#36 =( NAMED_UNIT ( * ) PLANE_ANGLE_UNIT ( ) SI_UNIT ( $, .RADIAN. ) );
#37 = CALENDAR_DATE ( 2022, 1, 3 ) ;
#38 = APPLICATION_CONTEXT ( 'configuration controlled 3d designs of mechanical parts and assemblies' ) ;
#39 = AXIS2_PLACEMENT_3D ( 'NONE', #119, #62, #107 ) ;
#40 = ORIENTED_EDGE ( 'NONE', *, *, #45, .F. ) ;
#41 = DIRECTION ( 'NONE',  ( 1.000000000000000000, 0.000000000000000000, -0.000000000000000000 ) ) ;
#42 = CARTESIAN_POINT ( 'NONE',  ( 0.000000000000000000, 0.000000000000000000, 0.000000000000000000 ) ) ;
#43 = VERTEX_POINT ( 'NONE', #162 ) ;
#44 = SECURITY_CLASSIFICATION_LEVEL ( 'unclassified' ) ;
#45 = EDGE_CURVE ( 'NONE', #111, #43, #91, .T. ) ;
#46 = CC_DESIGN_PERSON_AND_ORGANIZATION_ASSIGNMENT ( #117, #61, ( #145 ) ) ;
#47 = APPROVAL ( #115, 'UNSPECIFIED' ) ;
#48 = PERSON_AND_ORGANIZATION_ROLE ( 'design_supplier' ) ;
#49 = COORDINATED_UNIVERSAL_TIME_OFFSET ( 5, 0, .BEHIND. ) ;
#50 = CC_DESIGN_PERSON_AND_ORGANIZATION_ASSIGNMENT ( #116, #146, ( #120 ) ) ;
#51 = DIRECTION ( 'NONE',  ( 0.000000000000000000, 0.000000000000000000, 1.000000000000000000 ) ) ;
#52 = AXIS2_PLACEMENT_3D ( 'NONE', #89, #140, #138 ) ;
#53 = PRODUCT_RELATED_PRODUCT_CATEGORY ( 'detail', '', ( #141 ) ) ;
#54 = CIRCLE ( 'NONE', #13, 12.50000000000000000 ) ;
#55 = DIRECTION ( 'NONE',  ( -0.000000000000000000, -0.000000000000000000, -1.000000000000000000 ) ) ;
#56 = EDGE_LOOP ( 'NONE', ( #150, #104 ) ) ;
#57 = ORIENTED_EDGE ( 'NONE', *, *, #68, .T. ) ;
#58 = CARTESIAN_POINT ( 'NONE',  ( -12.50000000000000000, 0.000000000000000000, 0.1000000000000000056 ) ) ;
#59 = APPROVAL_PERSON_ORGANIZATION ( #133, #137, #9 ) ;
#60 = PRODUCT_DEFINITION_SHAPE ( 'NONE', 'NONE',  #145 ) ;
#61 = PERSON_AND_ORGANIZATION_ROLE ( 'creator' ) ;
#62 = DIRECTION ( 'NONE',  ( 0.000000000000000000, 0.000000000000000000, 1.000000000000000000 ) ) ;
#63 = VECTOR ( 'NONE', #27, 1000.000000000000000 ) ;
#64 = DATE_AND_TIME ( #8, #99 ) ;
#65 = CALENDAR_DATE ( 2022, 1, 3 ) ;
#66 = CC_DESIGN_PERSON_AND_ORGANIZATION_ASSIGNMENT ( #169, #48, ( #127 ) ) ;
#67 = CIRCLE ( 'NONE', #153, 12.50000000000000000 ) ;
#68 = EDGE_CURVE ( 'NONE', #134, #70, #26, .T. ) ;
#69 = DESIGN_CONTEXT ( 'detailed design', #98, 'design' ) ;
#70 = VERTEX_POINT ( 'NONE', #123 ) ;
#71 = AXIS2_PLACEMENT_3D ( 'NONE', #124, #51, #125 ) ;
#72 = DIRECTION ( 'NONE',  ( -1.000000000000000000, 0.000000000000000000, 0.000000000000000000 ) ) ;
#73 = ORIENTED_EDGE ( 'NONE', *, *, #45, .T. ) ;
#74 = CARTESIAN_POINT ( 'NONE',  ( 0.000000000000000000, 0.000000000000000000, 0.1000000000000000056 ) ) ;
#75 = EDGE_CURVE ( 'NONE', #70, #43, #54, .T. ) ;
#76 = APPROVAL_DATE_TIME ( #157, #137 ) ;
#77 = CC_DESIGN_APPROVAL ( #137, ( #120 ) ) ;
#78 = COORDINATED_UNIVERSAL_TIME_OFFSET ( 5, 0, .BEHIND. ) ;
#79 = AXIS2_PLACEMENT_3D ( 'NONE', #74, #18, #41 ) ;
#80 = DATE_TIME_ROLE ( 'classification_date' ) ;
#81 = ADVANCED_FACE ( 'NONE', ( #164 ), #12, .T. ) ;
#82 = EDGE_CURVE ( 'NONE', #111, #134, #67, .T. ) ;
#83 = EDGE_LOOP ( 'NONE', ( #136, #17 ) ) ;
#84 = UNCERTAINTY_MEASURE_WITH_UNIT (LENGTH_MEASURE( 1.000000000000000082E-05 ), #31, 'distance_accuracy_value', 'NONE');
#85 = CARTESIAN_POINT ( 'NONE',  ( 0.000000000000000000, 0.000000000000000000, 0.1000000000000000056 ) ) ;
#86 = FACE_OUTER_BOUND ( 'NONE', #90, .T. ) ;
#87 = MANIFOLD_SOLID_BREP ( 'Boss-Extrude1', #152 ) ;
#88 = CC_DESIGN_APPROVAL ( #47, ( #145 ) ) ;
#89 = CARTESIAN_POINT ( 'NONE',  ( 0.000000000000000000, 0.000000000000000000, 0.1000000000000000056 ) ) ;
#90 = EDGE_LOOP ( 'NONE', ( #155, #57, #25, #40 ) ) ;
#91 = LINE ( 'NONE', #4, #63 ) ;
#92 = PERSON_AND_ORGANIZATION ( #94, #173 ) ;
#93 = LOCAL_TIME ( 10, 54, 51.00000000000000000, #49 ) ;
#94 = PERSON ( 'UNSPECIFIED', 'UNSPECIFIED', 'UNSPECIFIED', ('UNSPECIFIED'), ('UNSPECIFIED'), ('UNSPECIFIED') ) ;
#95 = APPLICATION_PROTOCOL_DEFINITION ( 'international standard', 'config_control_design', 1994, #38 ) ;
#96 = LOCAL_TIME ( 10, 54, 51.00000000000000000, #78 ) ;
#97 = MECHANICAL_CONTEXT ( 'NONE', #38, 'mechanical' ) ;
#98 = APPLICATION_CONTEXT ( 'configuration controlled 3d designs of mechanical parts and assemblies' ) ;
#99 = LOCAL_TIME ( 10, 54, 51.00000000000000000, #6 ) ;
#100 = CYLINDRICAL_SURFACE ( 'NONE', #132, 12.50000000000000000 ) ;
#101 = DIRECTION ( 'NONE',  ( 1.000000000000000000, 0.000000000000000000, 0.000000000000000000 ) ) ;
#102 = LOCAL_TIME ( 10, 54, 51.00000000000000000, #20 ) ;
#103 = DIRECTION ( 'NONE',  ( 0.000000000000000000, 0.000000000000000000, 1.000000000000000000 ) ) ;
#104 = ORIENTED_EDGE ( 'NONE', *, *, #10, .T. ) ;
#105 = APPROVAL_DATE_TIME ( #166, #47 ) ;
#106 = PERSON_AND_ORGANIZATION ( #94, #173 ) ;
#107 = DIRECTION ( 'NONE',  ( 1.000000000000000000, 0.000000000000000000, 0.000000000000000000 ) ) ;
#108 = PERSON_AND_ORGANIZATION_ROLE ( 'creator' ) ;
#109 = CARTESIAN_POINT ( 'NONE',  ( 12.50000000000000000, 1.530808498934191521E-15, 0.1000000000000000056 ) ) ;
#110 = ADVANCED_FACE ( 'NONE', ( #86 ), #112, .T. ) ;
#111 = VERTEX_POINT ( 'NONE', #58 ) ;
#112 = CYLINDRICAL_SURFACE ( 'NONE', #24, 12.50000000000000000 ) ;
#113 = CARTESIAN_POINT ( 'NONE',  ( 12.50000000000000000, 1.530808498934191521E-15, 0.1000000000000000056 ) ) ;
#114 = ORIENTED_EDGE ( 'NONE', *, *, #28, .T. ) ;
#115 = APPROVAL_STATUS ( 'not_yet_approved' ) ;
#116 = PERSON_AND_ORGANIZATION ( #94, #173 ) ;
#117 = PERSON_AND_ORGANIZATION ( #94, #173 ) ;
#118 = APPROVAL_DATE_TIME ( #64, #32 ) ;
#119 = CARTESIAN_POINT ( 'NONE',  ( 0.000000000000000000, 0.000000000000000000, 0.000000000000000000 ) ) ;
#120 = SECURITY_CLASSIFICATION ( '', '', #44 ) ;
#121 = LOCAL_TIME ( 10, 54, 51.00000000000000000, #143 ) ;
#122 = DIRECTION ( 'NONE',  ( 0.000000000000000000, 0.000000000000000000, 1.000000000000000000 ) ) ;
#123 = CARTESIAN_POINT ( 'NONE',  ( 12.50000000000000000, 1.530808498934191521E-15, 0.000000000000000000 ) ) ;
#124 = CARTESIAN_POINT ( 'NONE',  ( 0.000000000000000000, 0.000000000000000000, 0.000000000000000000 ) ) ;
#125 = DIRECTION ( 'NONE',  ( 1.000000000000000000, 0.000000000000000000, 0.000000000000000000 ) ) ;
#126 = ORIENTED_EDGE ( 'NONE', *, *, #82, .F. ) ;
#127 = PRODUCT_DEFINITION_FORMATION_WITH_SPECIFIED_SOURCE ( 'ANY', '', #141, .NOT_KNOWN. ) ;
#128 = DATE_AND_TIME ( #37, #96 ) ;
#129 = SHAPE_DEFINITION_REPRESENTATION ( #60, #33 ) ;
#130 =( NAMED_UNIT ( * ) SI_UNIT ( $, .STERADIAN. ) SOLID_ANGLE_UNIT ( ) );
#131 = PERSON_AND_ORGANIZATION_ROLE ( 'design_owner' ) ;
#132 = AXIS2_PLACEMENT_3D ( 'NONE', #154, #55, #163 ) ;
#133 = PERSON_AND_ORGANIZATION ( #94, #173 ) ;
#134 = VERTEX_POINT ( 'NONE', #113 ) ;
#135 =( GEOMETRIC_REPRESENTATION_CONTEXT ( 3 ) GLOBAL_UNCERTAINTY_ASSIGNED_CONTEXT ( ( #84 ) ) GLOBAL_UNIT_ASSIGNED_CONTEXT ( ( #31, #36, #130 ) ) REPRESENTATION_CONTEXT ( 'NONE', 'WORKASPACE' ) );
#136 = ORIENTED_EDGE ( 'NONE', *, *, #28, .F. ) ;
#137 = APPROVAL ( #34, 'UNSPECIFIED' ) ;
#138 = DIRECTION ( 'NONE',  ( 1.000000000000000000, 0.000000000000000000, 0.000000000000000000 ) ) ;
#139 = APPROVAL_PERSON_ORGANIZATION ( #170, #47, #144 ) ;
#140 = DIRECTION ( 'NONE',  ( 0.000000000000000000, 0.000000000000000000, 1.000000000000000000 ) ) ;
#141 = PRODUCT ( 'Web Model 20207_20212', 'Web Model 20207_20212', '', ( #97 ) ) ;
#142 = DIRECTION ( 'NONE',  ( -0.000000000000000000, -0.000000000000000000, -1.000000000000000000 ) ) ;
#143 = COORDINATED_UNIVERSAL_TIME_OFFSET ( 5, 0, .BEHIND. ) ;
#144 = APPROVAL_ROLE ( '' ) ;
#145 = PRODUCT_DEFINITION ( 'UNKNOWN', '', #127, #69 ) ;
#146 = PERSON_AND_ORGANIZATION_ROLE ( 'classification_officer' ) ;
#147 = APPROVAL_STATUS ( 'not_yet_approved' ) ;
#148 = CIRCLE ( 'NONE', #71, 12.50000000000000000 ) ;
#149 = FACE_OUTER_BOUND ( 'NONE', #83, .T. ) ;
#150 = ORIENTED_EDGE ( 'NONE', *, *, #82, .T. ) ;
#151 = DIRECTION ( 'NONE',  ( 0.000000000000000000, 0.000000000000000000, 1.000000000000000000 ) ) ;
#152 = CLOSED_SHELL ( 'NONE', ( #110, #156, #81, #171 ) ) ;
#153 = AXIS2_PLACEMENT_3D ( 'NONE', #85, #151, #165 ) ;
#154 = CARTESIAN_POINT ( 'NONE',  ( 0.000000000000000000, 0.000000000000000000, 0.1000000000000000056 ) ) ;
#155 = ORIENTED_EDGE ( 'NONE', *, *, #10, .F. ) ;
#156 = ADVANCED_FACE ( 'NONE', ( #16 ), #100, .T. ) ;
#157 = DATE_AND_TIME ( #65, #102 ) ;
#158 = APPLICATION_PROTOCOL_DEFINITION ( 'international standard', 'config_control_design', 1994, #98 ) ;
#159 = CALENDAR_DATE ( 2022, 1, 3 ) ;
#160 = EDGE_LOOP ( 'NONE', ( #5, #126, #73, #114 ) ) ;
#161 = AXIS2_PLACEMENT_3D ( 'NONE', #42, #103, #3 ) ;
#162 = CARTESIAN_POINT ( 'NONE',  ( -12.50000000000000000, 0.000000000000000000, 0.000000000000000000 ) ) ;
#163 = DIRECTION ( 'NONE',  ( -1.000000000000000000, 0.000000000000000000, 0.000000000000000000 ) ) ;
#164 = FACE_OUTER_BOUND ( 'NONE', #56, .T. ) ;
#165 = DIRECTION ( 'NONE',  ( 1.000000000000000000, 0.000000000000000000, 0.000000000000000000 ) ) ;
#166 = DATE_AND_TIME ( #159, #93 ) ;
#167 = DATE_AND_TIME ( #23, #121 ) ;
#168 = APPROVAL_ROLE ( '' ) ;
#169 = PERSON_AND_ORGANIZATION ( #94, #173 ) ;
#170 = PERSON_AND_ORGANIZATION ( #94, #173 ) ;
#171 = ADVANCED_FACE ( 'NONE', ( #149 ), #11, .F. ) ;
#172 = CC_DESIGN_DATE_AND_TIME_ASSIGNMENT ( #128, #21, ( #145 ) ) ;
#173 = ORGANIZATION ( 'UNSPECIFIED', 'UNSPECIFIED', '' ) ;
#174 = CC_DESIGN_DATE_AND_TIME_ASSIGNMENT ( #167, #80, ( #120 ) ) ;
#175 = CARTESIAN_POINT ( 'NONE',  ( 0.000000000000000000, 0.000000000000000000, 0.1000000000000000056 ) ) ;
ENDSEC;
END-ISO-10303-21;
