ISO-10303-21;
HEADER;
FILE_DESCRIPTION (( 'STEP AP203' ),
    '1' );
FILE_NAME ('Web Model 37689_38780.step',
    '2018-08-03T18:46:59',
    ( '' ),
    ( '' ),
    'SwSTEP 2.0',
    'SolidWorks 2016',
    '' );
FILE_SCHEMA (( 'CONFIG_CONTROL_DESIGN' ));
ENDSEC;

DATA;
#1 = DIRECTION ( 'NONE',  ( -0.0000000000000000000, -0.0000000000000000000, -1.000000000000000000 ) ) ;
#2 = UNCERTAINTY_MEASURE_WITH_UNIT (LENGTH_MEASURE( 1.000000000000000100E-005 ), #19, 'distance_accuracy_value', 'NONE');
#3 = PERSON_AND_ORGANIZATION ( #154, #174 ) ;
#4 = DIRECTION ( 'NONE',  ( 1.000000000000000000, 0.0000000000000000000, 0.0000000000000000000 ) ) ;
#5 = VERTEX_POINT ( 'NONE', #10 ) ;
#6 = AXIS2_PLACEMENT_3D ( 'NONE', #18, #83, #112 ) ;
#7 = DIRECTION ( 'NONE',  ( -0.0000000000000000000, -0.0000000000000000000, -1.000000000000000000 ) ) ;
#8 = SECURITY_CLASSIFICATION_LEVEL ( 'unclassified' ) ;
#9 = CC_DESIGN_APPROVAL ( #125, ( #164 ) ) ;
#10 = CARTESIAN_POINT ( 'NONE',  ( 12.69999999999999900, 1.555301434917138400E-015, -3.174999999999999800 ) ) ;
#11 = COORDINATED_UNIVERSAL_TIME_OFFSET ( 5, 0, .BEHIND. ) ;
#12 =( GEOMETRIC_REPRESENTATION_CONTEXT ( 3 ) GLOBAL_UNCERTAINTY_ASSIGNED_CONTEXT ( ( #2 ) ) GLOBAL_UNIT_ASSIGNED_CONTEXT ( ( #19, #86, #61 ) ) REPRESENTATION_CONTEXT ( 'NONE', 'WORKASPACE' ) );
#13 = LOCAL_TIME ( 14, 46, 59.00000000000000000, #117 ) ;
#14 = PRODUCT ( 'Web Model 37689_38780', 'Web Model 37689_38780', '', ( #20 ) ) ;
#15 = CC_DESIGN_SECURITY_CLASSIFICATION ( #164, ( #79 ) ) ;
#16 = ORIENTED_EDGE ( 'NONE', *, *, #59, .F. ) ;
#17 = DATE_AND_TIME ( #155, #147 ) ;
#18 = CARTESIAN_POINT ( 'NONE',  ( 0.0000000000000000000, 0.0000000000000000000, 3.174999999999999800 ) ) ;
#19 =( LENGTH_UNIT ( ) NAMED_UNIT ( * ) SI_UNIT ( .MILLI., .METRE. ) );
#20 = MECHANICAL_CONTEXT ( 'NONE', #94, 'mechanical' ) ;
#21 = CARTESIAN_POINT ( 'NONE',  ( 0.0000000000000000000, 0.0000000000000000000, 3.174999999999999800 ) ) ;
#22 = APPROVAL_ROLE ( '' ) ;
#23 = CARTESIAN_POINT ( 'NONE',  ( 12.69999999999999900, 1.555301434917138400E-015, 3.174999999999999800 ) ) ;
#24 = EDGE_CURVE ( 'NONE', #36, #5, #171, .T. ) ;
#25 = LOCAL_TIME ( 14, 46, 59.00000000000000000, #97 ) ;
#26 = APPROVAL_PERSON_ORGANIZATION ( #81, #125, #22 ) ;
#27 = VECTOR ( 'NONE', #39, 1000.000000000000000 ) ;
#28 = DIRECTION ( 'NONE',  ( 0.0000000000000000000, 0.0000000000000000000, 1.000000000000000000 ) ) ;
#29 = DIRECTION ( 'NONE',  ( 0.0000000000000000000, 0.0000000000000000000, 1.000000000000000000 ) ) ;
#30 = PERSON_AND_ORGANIZATION_ROLE ( 'classification_officer' ) ;
#31 = EDGE_LOOP ( 'NONE', ( #54, #126, #103, #90 ) ) ;
#32 = PRODUCT_RELATED_PRODUCT_CATEGORY ( 'detail', '', ( #14 ) ) ;
#33 = PERSON_AND_ORGANIZATION ( #154, #174 ) ;
#34 = APPLICATION_PROTOCOL_DEFINITION ( 'international standard', 'config_control_design', 1994, #75 ) ;
#35 = AXIS2_PLACEMENT_3D ( 'NONE', #42, #137, #92 ) ;
#36 = VERTEX_POINT ( 'NONE', #102 ) ;
#37 = CARTESIAN_POINT ( 'NONE',  ( -12.69999999999999900, 0.0000000000000000000, 3.174999999999999800 ) ) ;
#38 = CARTESIAN_POINT ( 'NONE',  ( 0.0000000000000000000, 0.0000000000000000000, 3.174999999999999800 ) ) ;
#39 = DIRECTION ( 'NONE',  ( -0.0000000000000000000, -0.0000000000000000000, -1.000000000000000000 ) ) ;
#40 = PRODUCT_DEFINITION ( 'UNKNOWN', '', #79, #107 ) ;
#41 = AXIS2_PLACEMENT_3D ( 'NONE', #68, #1, #78 ) ;
#42 = CARTESIAN_POINT ( 'NONE',  ( 0.0000000000000000000, 0.0000000000000000000, -3.174999999999999800 ) ) ;
#43 = APPROVAL ( #73, 'UNSPECIFIED' ) ;
#44 = AXIS2_PLACEMENT_3D ( 'NONE', #21, #7, #87 ) ;
#45 = PERSON_AND_ORGANIZATION_ROLE ( 'design_supplier' ) ;
#46 = CALENDAR_DATE ( 2018, 3, 8 ) ;
#47 = CARTESIAN_POINT ( 'NONE',  ( 0.0000000000000000000, 0.0000000000000000000, -3.174999999999999800 ) ) ;
#48 = DATE_AND_TIME ( #89, #123 ) ;
#49 = FACE_OUTER_BOUND ( 'NONE', #57, .T. ) ;
#50 = CARTESIAN_POINT ( 'NONE',  ( -12.69999999999999900, 0.0000000000000000000, 3.174999999999999800 ) ) ;
#51 = PRODUCT_DEFINITION_SHAPE ( 'NONE', 'NONE',  #40 ) ;
#52 = CARTESIAN_POINT ( 'NONE',  ( 0.0000000000000000000, 0.0000000000000000000, -3.174999999999999800 ) ) ;
#53 = PERSON_AND_ORGANIZATION ( #154, #174 ) ;
#54 = ORIENTED_EDGE ( 'NONE', *, *, #24, .F. ) ;
#55 = APPROVAL_DATE_TIME ( #85, #76 ) ;
#56 = ORIENTED_EDGE ( 'NONE', *, *, #120, .F. ) ;
#57 = EDGE_LOOP ( 'NONE', ( #56, #98, #131, #119 ) ) ;
#58 = CYLINDRICAL_SURFACE ( 'NONE', #41, 12.69999999999999900 ) ;
#59 = EDGE_CURVE ( 'NONE', #70, #5, #63, .T. ) ;
#60 = DIRECTION ( 'NONE',  ( 1.000000000000000000, 0.0000000000000000000, 0.0000000000000000000 ) ) ;
#61 =( NAMED_UNIT ( * ) SI_UNIT ( $, .STERADIAN. ) SOLID_ANGLE_UNIT ( ) );
#62 = AXIS2_PLACEMENT_3D ( 'NONE', #133, #148, #4 ) ;
#63 = CIRCLE ( 'NONE', #108, 12.69999999999999900 ) ;
#64 = CC_DESIGN_PERSON_AND_ORGANIZATION_ASSIGNMENT ( #65, #45, ( #79 ) ) ;
#65 = PERSON_AND_ORGANIZATION ( #154, #174 ) ;
#66 = DIRECTION ( 'NONE',  ( -0.0000000000000000000, -0.0000000000000000000, -1.000000000000000000 ) ) ;
#67 = PERSON_AND_ORGANIZATION ( #154, #174 ) ;
#68 = CARTESIAN_POINT ( 'NONE',  ( 0.0000000000000000000, 0.0000000000000000000, 3.174999999999999800 ) ) ;
#69 = CC_DESIGN_PERSON_AND_ORGANIZATION_ASSIGNMENT ( #161, #110, ( #14 ) ) ;
#70 = VERTEX_POINT ( 'NONE', #143 ) ;
#71 = APPROVAL_STATUS ( 'not_yet_approved' ) ;
#72 = DATE_TIME_ROLE ( 'creation_date' ) ;
#73 = APPROVAL_STATUS ( 'not_yet_approved' ) ;
#74 = PERSON_AND_ORGANIZATION ( #154, #174 ) ;
#75 = APPLICATION_CONTEXT ( 'configuration controlled 3d designs of mechanical parts and assemblies' ) ;
#76 = APPROVAL ( #71, 'UNSPECIFIED' ) ;
#77 = EDGE_CURVE ( 'NONE', #115, #70, #121, .T. ) ;
#78 = DIRECTION ( 'NONE',  ( -1.000000000000000000, 0.0000000000000000000, 0.0000000000000000000 ) ) ;
#79 = PRODUCT_DEFINITION_FORMATION_WITH_SPECIFIED_SOURCE ( 'ANY', '', #14, .NOT_KNOWN. ) ;
#80 = FACE_OUTER_BOUND ( 'NONE', #134, .T. ) ;
#81 = PERSON_AND_ORGANIZATION ( #154, #174 ) ;
#82 = CYLINDRICAL_SURFACE ( 'NONE', #44, 12.69999999999999900 ) ;
#83 = DIRECTION ( 'NONE',  ( 0.0000000000000000000, 0.0000000000000000000, 1.000000000000000000 ) ) ;
#84 = APPROVAL_ROLE ( '' ) ;
#85 = DATE_AND_TIME ( #158, #173 ) ;
#86 =( NAMED_UNIT ( * ) PLANE_ANGLE_UNIT ( ) SI_UNIT ( $, .RADIAN. ) );
#87 = DIRECTION ( 'NONE',  ( -1.000000000000000000, 0.0000000000000000000, 0.0000000000000000000 ) ) ;
#88 = DATE_AND_TIME ( #136, #25 ) ;
#89 = CALENDAR_DATE ( 2018, 3, 8 ) ;
#90 = ORIENTED_EDGE ( 'NONE', *, *, #59, .T. ) ;
#91 = PLANE ( 'NONE',  #6 ) ;
#92 = DIRECTION ( 'NONE',  ( 1.000000000000000000, 0.0000000000000000000, -0.0000000000000000000 ) ) ;
#93 = ORIENTED_EDGE ( 'NONE', *, *, #114, .T. ) ;
#94 = APPLICATION_CONTEXT ( 'configuration controlled 3d designs of mechanical parts and assemblies' ) ;
#95 = VECTOR ( 'NONE', #66, 1000.000000000000000 ) ;
#96 = MANIFOLD_SOLID_BREP ( 'Boss-Extrude1', #140 ) ;
#97 = COORDINATED_UNIVERSAL_TIME_OFFSET ( 5, 0, .BEHIND. ) ;
#98 = ORIENTED_EDGE ( 'NONE', *, *, #24, .T. ) ;
#99 = CC_DESIGN_APPROVAL ( #76, ( #40 ) ) ;
#100 = ADVANCED_FACE ( 'NONE', ( #170 ), #58, .T. ) ;
#101 = COORDINATED_UNIVERSAL_TIME_OFFSET ( 5, 0, .BEHIND. ) ;
#102 = CARTESIAN_POINT ( 'NONE',  ( 12.69999999999999900, 1.555301434917138400E-015, 3.174999999999999800 ) ) ;
#103 = ORIENTED_EDGE ( 'NONE', *, *, #77, .T. ) ;
#104 = AXIS2_PLACEMENT_3D ( 'NONE', #109, #28, #127 ) ;
#105 = DIRECTION ( 'NONE',  ( 1.000000000000000000, 0.0000000000000000000, 0.0000000000000000000 ) ) ;
#106 = APPROVAL_DATE_TIME ( #17, #43 ) ;
#107 = DESIGN_CONTEXT ( 'detailed design', #75, 'design' ) ;
#108 = AXIS2_PLACEMENT_3D ( 'NONE', #52, #144, #146 ) ;
#109 = CARTESIAN_POINT ( 'NONE',  ( 0.0000000000000000000, 0.0000000000000000000, 0.0000000000000000000 ) ) ;
#110 = PERSON_AND_ORGANIZATION_ROLE ( 'design_owner' ) ;
#111 = DATE_AND_TIME ( #46, #13 ) ;
#112 = DIRECTION ( 'NONE',  ( 1.000000000000000000, 0.0000000000000000000, -0.0000000000000000000 ) ) ;
#113 = CIRCLE ( 'NONE', #62, 12.69999999999999900 ) ;
#114 = EDGE_CURVE ( 'NONE', #115, #36, #149, .T. ) ;
#115 = VERTEX_POINT ( 'NONE', #37 ) ;
#116 = DIRECTION ( 'NONE',  ( 0.0000000000000000000, 0.0000000000000000000, 1.000000000000000000 ) ) ;
#117 = COORDINATED_UNIVERSAL_TIME_OFFSET ( 5, 0, .BEHIND. ) ;
#118 = FACE_OUTER_BOUND ( 'NONE', #165, .T. ) ;
#119 = ORIENTED_EDGE ( 'NONE', *, *, #77, .F. ) ;
#120 = EDGE_CURVE ( 'NONE', #36, #115, #113, .T. ) ;
#121 = LINE ( 'NONE', #50, #95 ) ;
#122 = APPROVAL_ROLE ( '' ) ;
#123 = LOCAL_TIME ( 14, 46, 59.00000000000000000, #169 ) ;
#124 = APPROVAL_STATUS ( 'not_yet_approved' ) ;
#125 = APPROVAL ( #124, 'UNSPECIFIED' ) ;
#126 = ORIENTED_EDGE ( 'NONE', *, *, #114, .F. ) ;
#127 = DIRECTION ( 'NONE',  ( 1.000000000000000000, 0.0000000000000000000, 0.0000000000000000000 ) ) ;
#128 = APPROVAL_PERSON_ORGANIZATION ( #53, #43, #84 ) ;
#129 = CC_DESIGN_DATE_AND_TIME_ASSIGNMENT ( #111, #72, ( #40 ) ) ;
#130 = ADVANCED_FACE ( 'NONE', ( #80 ), #152, .F. ) ;
#131 = ORIENTED_EDGE ( 'NONE', *, *, #142, .T. ) ;
#132 = APPROVAL_PERSON_ORGANIZATION ( #74, #76, #122 ) ;
#133 = CARTESIAN_POINT ( 'NONE',  ( 0.0000000000000000000, 0.0000000000000000000, 3.174999999999999800 ) ) ;
#134 = EDGE_LOOP ( 'NONE', ( #16, #141 ) ) ;
#135 = CC_DESIGN_DATE_AND_TIME_ASSIGNMENT ( #88, #168, ( #164 ) ) ;
#136 = CALENDAR_DATE ( 2018, 3, 8 ) ;
#137 = DIRECTION ( 'NONE',  ( 0.0000000000000000000, 0.0000000000000000000, 1.000000000000000000 ) ) ;
#138 = CC_DESIGN_APPROVAL ( #43, ( #79 ) ) ;
#139 = PERSON_AND_ORGANIZATION_ROLE ( 'creator' ) ;
#140 = CLOSED_SHELL ( 'NONE', ( #175, #100, #163, #130 ) ) ;
#141 = ORIENTED_EDGE ( 'NONE', *, *, #142, .F. ) ;
#142 = EDGE_CURVE ( 'NONE', #5, #70, #153, .T. ) ;
#143 = CARTESIAN_POINT ( 'NONE',  ( -12.69999999999999900, 0.0000000000000000000, -3.174999999999999800 ) ) ;
#144 = DIRECTION ( 'NONE',  ( 0.0000000000000000000, 0.0000000000000000000, 1.000000000000000000 ) ) ;
#145 = ADVANCED_BREP_SHAPE_REPRESENTATION ( 'Web Model 37689_38780', ( #96, #104 ), #12 ) ;
#146 = DIRECTION ( 'NONE',  ( 1.000000000000000000, 0.0000000000000000000, 0.0000000000000000000 ) ) ;
#147 = LOCAL_TIME ( 14, 46, 59.00000000000000000, #101 ) ;
#148 = DIRECTION ( 'NONE',  ( 0.0000000000000000000, 0.0000000000000000000, 1.000000000000000000 ) ) ;
#149 = CIRCLE ( 'NONE', #151, 12.69999999999999900 ) ;
#150 = APPROVAL_DATE_TIME ( #48, #125 ) ;
#151 = AXIS2_PLACEMENT_3D ( 'NONE', #38, #116, #105 ) ;
#152 = PLANE ( 'NONE',  #35 ) ;
#153 = CIRCLE ( 'NONE', #162, 12.69999999999999900 ) ;
#154 = PERSON ( 'UNSPECIFIED', 'UNSPECIFIED', 'UNSPECIFIED', ('UNSPECIFIED'), ('UNSPECIFIED'), ('UNSPECIFIED') ) ;
#155 = CALENDAR_DATE ( 2018, 3, 8 ) ;
#156 = APPLICATION_PROTOCOL_DEFINITION ( 'international standard', 'config_control_design', 1994, #94 ) ;
#157 = ORIENTED_EDGE ( 'NONE', *, *, #120, .T. ) ;
#158 = CALENDAR_DATE ( 2018, 3, 8 ) ;
#159 = CC_DESIGN_PERSON_AND_ORGANIZATION_ASSIGNMENT ( #67, #167, ( #79 ) ) ;
#160 = SHAPE_DEFINITION_REPRESENTATION ( #51, #145 ) ;
#161 = PERSON_AND_ORGANIZATION ( #154, #174 ) ;
#162 = AXIS2_PLACEMENT_3D ( 'NONE', #47, #29, #60 ) ;
#163 = ADVANCED_FACE ( 'NONE', ( #118 ), #91, .T. ) ;
#164 = SECURITY_CLASSIFICATION ( '', '', #8 ) ;
#165 = EDGE_LOOP ( 'NONE', ( #93, #157 ) ) ;
#166 = CC_DESIGN_PERSON_AND_ORGANIZATION_ASSIGNMENT ( #33, #30, ( #164 ) ) ;
#167 = PERSON_AND_ORGANIZATION_ROLE ( 'creator' ) ;
#168 = DATE_TIME_ROLE ( 'classification_date' ) ;
#169 = COORDINATED_UNIVERSAL_TIME_OFFSET ( 5, 0, .BEHIND. ) ;
#170 = FACE_OUTER_BOUND ( 'NONE', #31, .T. ) ;
#171 = LINE ( 'NONE', #23, #27 ) ;
#172 = CC_DESIGN_PERSON_AND_ORGANIZATION_ASSIGNMENT ( #3, #139, ( #40 ) ) ;
#173 = LOCAL_TIME ( 14, 46, 59.00000000000000000, #11 ) ;
#174 = ORGANIZATION ( 'UNSPECIFIED', 'UNSPECIFIED', '' ) ;
#175 = ADVANCED_FACE ( 'NONE', ( #49 ), #82, .T. ) ;
ENDSEC;
END-ISO-10303-21;
