ISO-10303-21;
HEADER;
FILE_DESCRIPTION (( 'STEP AP214' ),
    '1' );
FILE_NAME ('4880-E0W.step',
    '2007-11-09T01:59:41',
    ( ' ' ),
    ( ' ' ),
    'SwSTEP 2.0',
    'SolidWorks 2007',
    '' );
FILE_SCHEMA (( 'AUTOMOTIVE_DESIGN' ));
ENDSEC;

DATA;
#1 =( NAMED_UNIT ( * ) PLANE_ANGLE_UNIT ( ) SI_UNIT ( $, .RADIAN. ) );
#2 =( NAMED_UNIT ( * ) SI_UNIT ( $, .STERADIAN. ) SOLID_ANGLE_UNIT ( ) );
#3 = UNCERTAINTY_MEASURE_WITH_UNIT (LENGTH_MEASURE( 1.000000000000000100E-005 ), #101, 'distance_accuracy_value', 'NONE');
#4 =( GEOMETRIC_REPRESENTATION_CONTEXT ( 3 ) GLOBAL_UNCERTAINTY_ASSIGNED_CONTEXT ( ( #3 ) ) GLOBAL_UNIT_ASSIGNED_CONTEXT ( ( #101, #1, #2 ) ) REPRESENTATION_CONTEXT ( 'NONE', 'WORKASPACE' ) );
#5 = CYLINDRICAL_SURFACE ( 'NONE', #6, 1.000000000000000700 ) ;
#6 = AXIS2_PLACEMENT_3D ( 'NONE', #8, #7, #9 ) ;
#7 = DIRECTION ( 'NONE',  ( 1.000000000000000000, 0.0000000000000000000, 0.0000000000000000000 ) ) ;
#8 = CARTESIAN_POINT ( 'NONE',  ( -3.328916529300524300, 1.358932922870714100, 0.8722530675037537500 ) ) ;
#9 = DIRECTION ( 'NONE',  ( 0.0000000000000000000, 0.0000000000000000000, -1.000000000000000000 ) ) ;
#10 = ADVANCED_FACE ( 'NONE', ( #49 ), #85, .F. ) ;
#11 = EDGE_LOOP ( 'NONE', ( #12, #15, #63, #65 ) ) ;
#12 = ORIENTED_EDGE ( 'NONE', *, *, #13, .F. ) ;
#13 = EDGE_CURVE ( 'NONE', #14, #33, #81, .T. ) ;
#14 = VERTEX_POINT ( 'NONE', #133 ) ;
#15 = ORIENTED_EDGE ( 'NONE', *, *, #16, .T. ) ;
#16 = EDGE_CURVE ( 'NONE', #14, #17, #132, .T. ) ;
#17 = VERTEX_POINT ( 'NONE', #127 ) ;
#18 = EDGE_CURVE ( 'NONE', #19, #34, #126, .T. ) ;
#19 = VERTEX_POINT ( 'NONE', #121 ) ;
#20 = ORIENTED_EDGE ( 'NONE', *, *, #21, .F. ) ;
#21 = EDGE_CURVE ( 'NONE', #43, #19, #119, .T. ) ;
#22 = ADVANCED_FACE ( 'NONE', ( #120 ), #5, .T. ) ;
#23 = EDGE_LOOP ( 'NONE', ( #24, #27, #28, #31, #76, #79 ) ) ;
#24 = ORIENTED_EDGE ( 'NONE', *, *, #25, .T. ) ;
#25 = EDGE_CURVE ( 'NONE', #26, #43, #172, .T. ) ;
#26 = VERTEX_POINT ( 'NONE', #167 ) ;
#27 = ORIENTED_EDGE ( 'NONE', *, *, #21, .T. ) ;
#28 = ORIENTED_EDGE ( 'NONE', *, *, #29, .T. ) ;
#29 = EDGE_CURVE ( 'NONE', #19, #30, #166, .T. ) ;
#30 = VERTEX_POINT ( 'NONE', #162 ) ;
#31 = ORIENTED_EDGE ( 'NONE', *, *, #32, .F. ) ;
#32 = EDGE_CURVE ( 'NONE', #33, #30, #161, .T. ) ;
#33 = VERTEX_POINT ( 'NONE', #156 ) ;
#34 = VERTEX_POINT ( 'NONE', #155 ) ;
#35 = ORIENTED_EDGE ( 'NONE', *, *, #36, .T. ) ;
#36 = EDGE_CURVE ( 'NONE', #42, #34, #153, .T. ) ;
#37 = MANIFOLD_SOLID_BREP ( 'NONE', #62 ) ;
#38 = ADVANCED_FACE ( 'NONE', ( #189 ), #223, .T. ) ;
#39 = EDGE_LOOP ( 'NONE', ( #40, #35, #44, #20 ) ) ;
#40 = ORIENTED_EDGE ( 'NONE', *, *, #41, .F. ) ;
#41 = EDGE_CURVE ( 'NONE', #42, #43, #219, .T. ) ;
#42 = VERTEX_POINT ( 'NONE', #214 ) ;
#43 = VERTEX_POINT ( 'NONE', #213 ) ;
#44 = ORIENTED_EDGE ( 'NONE', *, *, #18, .F. ) ;
#45 = SURFACE_STYLE_FILL_AREA ( #46 ) ;
#46 = FILL_AREA_STYLE ('',( #47 ) ) ;
#47 = FILL_AREA_STYLE_COLOUR ( '', #48 ) ;
#48 = COLOUR_RGB ( '',0.7529411764705882200, 0.7529411764705882200, 0.7529411764705882200 ) ;
#49 = FACE_OUTER_BOUND ( 'NONE', #11, .T. ) ;
#50 = ORIENTED_EDGE ( 'NONE', *, *, #53, .F. ) ;
#51 = ORIENTED_EDGE ( 'NONE', *, *, #18, .T. ) ;
#52 = ORIENTED_EDGE ( 'NONE', *, *, #53, .T. ) ;
#53 = EDGE_CURVE ( 'NONE', #34, #26, #211, .T. ) ;
#54 = ORIENTED_EDGE ( 'NONE', *, *, #80, .T. ) ;
#55 = ORIENTED_EDGE ( 'NONE', *, *, #64, .F. ) ;
#56 = ORIENTED_EDGE ( 'NONE', *, *, #72, .F. ) ;
#57 = ADVANCED_FACE ( 'NONE', ( #212 ), #246, .T. ) ;
#58 = EDGE_LOOP ( 'NONE', ( #59, #60, #61, #50 ) ) ;
#59 = ORIENTED_EDGE ( 'NONE', *, *, #36, .F. ) ;
#60 = ORIENTED_EDGE ( 'NONE', *, *, #41, .T. ) ;
#61 = ORIENTED_EDGE ( 'NONE', *, *, #25, .F. ) ;
#62 = CLOSED_SHELL ( 'NONE', ( #38, #22, #10, #66, #73, #57 ) ) ;
#63 = ORIENTED_EDGE ( 'NONE', *, *, #64, .T. ) ;
#64 = EDGE_CURVE ( 'NONE', #17, #78, #241, .T. ) ;
#65 = ORIENTED_EDGE ( 'NONE', *, *, #77, .T. ) ;
#66 = ADVANCED_FACE ( 'NONE', ( #236 ), #272, .F. ) ;
#67 = EDGE_LOOP ( 'NONE', ( #68, #69, #70, #71 ) ) ;
#68 = ORIENTED_EDGE ( 'NONE', *, *, #16, .F. ) ;
#69 = ORIENTED_EDGE ( 'NONE', *, *, #13, .T. ) ;
#70 = ORIENTED_EDGE ( 'NONE', *, *, #32, .T. ) ;
#71 = ORIENTED_EDGE ( 'NONE', *, *, #72, .T. ) ;
#72 = EDGE_CURVE ( 'NONE', #30, #17, #267, .T. ) ;
#73 = ADVANCED_FACE ( 'NONE', ( #262 ), #290, .T. ) ;
#74 = EDGE_LOOP ( 'NONE', ( #75, #51, #52, #54, #55, #56 ) ) ;
#75 = ORIENTED_EDGE ( 'NONE', *, *, #29, .F. ) ;
#76 = ORIENTED_EDGE ( 'NONE', *, *, #77, .F. ) ;
#77 = EDGE_CURVE ( 'NONE', #78, #33, #286, .T. ) ;
#78 = VERTEX_POINT ( 'NONE', #282 ) ;
#79 = ORIENTED_EDGE ( 'NONE', *, *, #80, .F. ) ;
#80 = EDGE_CURVE ( 'NONE', #26, #78, #320, .T. ) ;
#81 = CIRCLE ( 'NONE', #137, 2.177165354330707000 ) ;
#82 = DIRECTION ( 'NONE',  ( 0.0000000000000000000, 1.000000000000000000, 0.0000000000000000000 ) ) ;
#83 = DIRECTION ( 'NONE',  ( 0.0000000000000000000, 0.0000000000000000000, 1.000000000000000000 ) ) ;
#84 = AXIS2_PLACEMENT_3D ( 'NONE', #86, #83, #82 ) ;
#85 = SPHERICAL_SURFACE ( 'NONE', #84, 2.177165354330707000 ) ;
#86 = CARTESIAN_POINT ( 'NONE',  ( -1.151751174969817000, 1.358932922870714100, 0.8722530675037537500 ) ) ;
#87 =( GEOMETRIC_REPRESENTATION_CONTEXT ( 3 ) GLOBAL_UNCERTAINTY_ASSIGNED_CONTEXT ( ( #88 ) ) GLOBAL_UNIT_ASSIGNED_CONTEXT ( ( #91, #90, #89 ) ) REPRESENTATION_CONTEXT ( 'NONE', 'WORKASPACE' ) );
#88 = UNCERTAINTY_MEASURE_WITH_UNIT (LENGTH_MEASURE( 1.000000000000000100E-005 ), #91, 'distance_accuracy_value', 'NONE');
#89 =( NAMED_UNIT ( * ) SI_UNIT ( $, .STERADIAN. ) SOLID_ANGLE_UNIT ( ) );
#90 =( NAMED_UNIT ( * ) PLANE_ANGLE_UNIT ( ) SI_UNIT ( $, .RADIAN. ) );
#91 =( CONVERSION_BASED_UNIT ( 'INCH', #92 ) LENGTH_UNIT ( ) NAMED_UNIT ( #93 ) );
#92 = LENGTH_MEASURE_WITH_UNIT ( LENGTH_MEASURE( 0.02539999999999999900 ), #94 );
#93 = DIMENSIONAL_EXPONENTS ( 1.000000000000000000, 0.0000000000000000000, 0.0000000000000000000, 0.0000000000000000000, 0.0000000000000000000, 0.0000000000000000000, 0.0000000000000000000 ) ;
#94 =( LENGTH_UNIT ( ) NAMED_UNIT ( * ) SI_UNIT ( $, .METRE. ) );
#95 = MECHANICAL_DESIGN_GEOMETRIC_PRESENTATION_REPRESENTATION (  '', ( #97 ), #87 ) ;
#96 = PRESENTATION_LAYER_ASSIGNMENT (  '', '', ( #97 ) ) ;
#97 = STYLED_ITEM ( 'NONE', ( #98 ), #10 ) ;
#98 = PRESENTATION_STYLE_ASSIGNMENT (( #99 ) ) ;
#99 = SURFACE_STYLE_USAGE ( .BOTH. , #100 ) ;
#100 = SURFACE_SIDE_STYLE ('',( #45 ) ) ;
#101 =( CONVERSION_BASED_UNIT ( 'INCH', #102 ) LENGTH_UNIT ( ) NAMED_UNIT ( #103 ) );
#102 = LENGTH_MEASURE_WITH_UNIT ( LENGTH_MEASURE( 0.02539999999999999900 ), #104 );
#103 = DIMENSIONAL_EXPONENTS ( 1.000000000000000000, 0.0000000000000000000, 0.0000000000000000000, 0.0000000000000000000, 0.0000000000000000000, 0.0000000000000000000, 0.0000000000000000000 ) ;
#104 =( LENGTH_UNIT ( ) NAMED_UNIT ( * ) SI_UNIT ( $, .METRE. ) );
#105 = MECHANICAL_DESIGN_GEOMETRIC_PRESENTATION_REPRESENTATION (  '', ( #107 ), #4 ) ;
#106 = PRESENTATION_LAYER_ASSIGNMENT (  '', '', ( #107 ) ) ;
#107 = STYLED_ITEM ( 'NONE', ( #108 ), #22 ) ;
#108 = PRESENTATION_STYLE_ASSIGNMENT (( #109 ) ) ;
#109 = SURFACE_STYLE_USAGE ( .BOTH. , #110 ) ;
#110 = SURFACE_SIDE_STYLE ('',( #111 ) ) ;
#111 = SURFACE_STYLE_FILL_AREA ( #112 ) ;
#112 = FILL_AREA_STYLE ('',( #113 ) ) ;
#113 = FILL_AREA_STYLE_COLOUR ( '', #114 ) ;
#114 = COLOUR_RGB ( '',0.7529411764705882200, 0.7529411764705882200, 0.7529411764705882200 ) ;
#115 = DIRECTION ( 'NONE',  ( 0.0000000000000000000, 0.0000000000000000000, -1.000000000000000000 ) ) ;
#116 = DIRECTION ( 'NONE',  ( 1.000000000000000000, 0.0000000000000000000, 0.0000000000000000000 ) ) ;
#117 = CARTESIAN_POINT ( 'NONE',  ( -3.462008789174868500, 1.358932922870714100, 0.8722530675037537500 ) ) ;
#118 = AXIS2_PLACEMENT_3D ( 'NONE', #117, #116, #115 ) ;
#119 = CIRCLE ( 'NONE', #118, 1.000000000000001300 ) ;
#120 = FACE_OUTER_BOUND ( 'NONE', #23, .T. ) ;
#121 = CARTESIAN_POINT ( 'NONE',  ( -3.462008789174868500, 1.358932922870714100, 1.872253067503755000 ) ) ;
#122 = DIRECTION ( 'NONE',  ( 0.0000000000000000000, 0.0000000000000000000, -1.000000000000000000 ) ) ;
#123 = DIRECTION ( 'NONE',  ( 1.000000000000000000, 0.0000000000000000000, 0.0000000000000000000 ) ) ;
#124 = CARTESIAN_POINT ( 'NONE',  ( -3.462008789174868500, 1.358932922870714100, 0.8722530675037537500 ) ) ;
#125 = AXIS2_PLACEMENT_3D ( 'NONE', #124, #123, #122 ) ;
#126 = CIRCLE ( 'NONE', #125, 1.000000000000001300 ) ;
#127 = CARTESIAN_POINT ( 'NONE',  ( -3.085671799012580600, 0.3589329228707139300, 0.8722530675037538600 ) ) ;
#128 = DIRECTION ( 'NONE',  ( 0.0000000000000000000, -1.000000000000000000, 1.254772857849409500E-016 ) ) ;
#129 = DIRECTION ( 'NONE',  ( 0.0000000000000000000, 1.224606353822377300E-016, 1.000000000000000000 ) ) ;
#130 = CARTESIAN_POINT ( 'NONE',  ( -1.151751174969817000, 1.358932922870714100, 0.8722530675037537500 ) ) ;
#131 = AXIS2_PLACEMENT_3D ( 'NONE', #130, #129, #128 ) ;
#132 = CIRCLE ( 'NONE', #131, 2.177165354330707000 ) ;
#133 = CARTESIAN_POINT ( 'NONE',  ( -3.328916529300524300, 1.358932922870714100, 0.8722530675037537500 ) ) ;
#134 = DIRECTION ( 'NONE',  ( -1.000000000000000000, 0.0000000000000000000, 0.0000000000000000000 ) ) ;
#135 = DIRECTION ( 'NONE',  ( 0.0000000000000000000, 0.0000000000000000000, -1.000000000000000000 ) ) ;
#136 = CARTESIAN_POINT ( 'NONE',  ( -1.151751174969817000, 1.358932922870714100, 0.8722530675037537500 ) ) ;
#137 = AXIS2_PLACEMENT_3D ( 'NONE', #136, #135, #134 ) ;
#138 = DIMENSIONAL_EXPONENTS ( 1.000000000000000000, 0.0000000000000000000, 0.0000000000000000000, 0.0000000000000000000, 0.0000000000000000000, 0.0000000000000000000, 0.0000000000000000000 ) ;
#139 =( LENGTH_UNIT ( ) NAMED_UNIT ( * ) SI_UNIT ( $, .METRE. ) );
#140 = MECHANICAL_DESIGN_GEOMETRIC_PRESENTATION_REPRESENTATION (  '', ( #142 ), #190 ) ;
#141 = PRESENTATION_LAYER_ASSIGNMENT (  '', '', ( #142 ) ) ;
#142 = STYLED_ITEM ( 'NONE', ( #143 ), #37 ) ;
#143 = PRESENTATION_STYLE_ASSIGNMENT (( #144 ) ) ;
#144 = SURFACE_STYLE_USAGE ( .BOTH. , #145 ) ;
#145 = SURFACE_SIDE_STYLE ('',( #146 ) ) ;
#146 = SURFACE_STYLE_FILL_AREA ( #147 ) ;
#147 = FILL_AREA_STYLE ('',( #154 ) ) ;
#148 = COLOUR_RGB ( '',0.7529411764705882200, 0.7529411764705882200, 0.7529411764705882200 ) ;
#149 = DIRECTION ( 'NONE',  ( 0.0000000000000000000, -1.000000000000000000, 1.214306433183764700E-016 ) ) ;
#150 = DIRECTION ( 'NONE',  ( 0.0000000000000000000, 1.224606353822377300E-016, 1.000000000000000000 ) ) ;
#151 = CARTESIAN_POINT ( 'NONE',  ( 4.348248825030185400, 1.358932922870714100, 0.8722530675037537500 ) ) ;
#152 = AXIS2_PLACEMENT_3D ( 'NONE', #151, #150, #149 ) ;
#153 = CIRCLE ( 'NONE', #152, 7.874015748031496300 ) ;
#154 = FILL_AREA_STYLE_COLOUR ( '', #148 ) ;
#155 = CARTESIAN_POINT ( 'NONE',  ( -3.462008789174868500, 0.3589329228707141600, 0.8722530675037538600 ) ) ;
#156 = CARTESIAN_POINT ( 'NONE',  ( -3.085671799012580600, 2.358932922870714300, 0.8722530675037537500 ) ) ;
#157 = DIRECTION ( 'NONE',  ( 0.0000000000000000000, 0.0000000000000000000, -1.000000000000000000 ) ) ;
#158 = DIRECTION ( 'NONE',  ( 1.000000000000000000, 0.0000000000000000000, 0.0000000000000000000 ) ) ;
#159 = CARTESIAN_POINT ( 'NONE',  ( -3.085671799012580600, 1.358932922870714100, 0.8722530675037537500 ) ) ;
#160 = AXIS2_PLACEMENT_3D ( 'NONE', #159, #158, #157 ) ;
#161 = CIRCLE ( 'NONE', #160, 1.000000000000000000 ) ;
#162 = CARTESIAN_POINT ( 'NONE',  ( -3.085671799012580600, 1.358932922870714100, 1.872253067503753600 ) ) ;
#163 = DIRECTION ( 'NONE',  ( 1.000000000000000000, 0.0000000000000000000, 0.0000000000000000000 ) ) ;
#164 = VECTOR ( 'NONE', #163, 39.37007874015748100 ) ;
#165 = CARTESIAN_POINT ( 'NONE',  ( -3.328916529300524300, 1.358932922870714100, 1.872253067503754500 ) ) ;
#166 = LINE ( 'NONE', #165, #164 ) ;
#167 = CARTESIAN_POINT ( 'NONE',  ( -3.462008789174868500, 1.358932922870714100, -0.1277469324962476600 ) ) ;
#168 = DIRECTION ( 'NONE',  ( 0.0000000000000000000, 0.0000000000000000000, -1.000000000000000000 ) ) ;
#169 = DIRECTION ( 'NONE',  ( 1.000000000000000000, 0.0000000000000000000, 0.0000000000000000000 ) ) ;
#170 = CARTESIAN_POINT ( 'NONE',  ( -3.462008789174868500, 1.358932922870714100, 0.8722530675037537500 ) ) ;
#171 = AXIS2_PLACEMENT_3D ( 'NONE', #170, #169, #168 ) ;
#172 = CIRCLE ( 'NONE', #171, 1.000000000000001300 ) ;
#173 =( NAMED_UNIT ( * ) SI_UNIT ( $, .STERADIAN. ) SOLID_ANGLE_UNIT ( ) );
#174 =( NAMED_UNIT ( * ) PLANE_ANGLE_UNIT ( ) SI_UNIT ( $, .RADIAN. ) );
#175 =( CONVERSION_BASED_UNIT ( 'INCH', #176 ) LENGTH_UNIT ( ) NAMED_UNIT ( #177 ) );
#176 = LENGTH_MEASURE_WITH_UNIT ( LENGTH_MEASURE( 0.02539999999999999900 ), #178 );
#177 = DIMENSIONAL_EXPONENTS ( 1.000000000000000000, 0.0000000000000000000, 0.0000000000000000000, 0.0000000000000000000, 0.0000000000000000000, 0.0000000000000000000, 0.0000000000000000000 ) ;
#178 =( LENGTH_UNIT ( ) NAMED_UNIT ( * ) SI_UNIT ( $, .METRE. ) );
#179 = MECHANICAL_DESIGN_GEOMETRIC_PRESENTATION_REPRESENTATION (  '', ( #181 ), #225 ) ;
#180 = PRESENTATION_LAYER_ASSIGNMENT (  '', '', ( #181 ) ) ;
#181 = STYLED_ITEM ( 'NONE', ( #182 ), #38 ) ;
#182 = PRESENTATION_STYLE_ASSIGNMENT (( #183 ) ) ;
#183 = SURFACE_STYLE_USAGE ( .BOTH. , #184 ) ;
#184 = SURFACE_SIDE_STYLE ('',( #185 ) ) ;
#185 = SURFACE_STYLE_FILL_AREA ( #186 ) ;
#186 = FILL_AREA_STYLE ('',( #187 ) ) ;
#187 = FILL_AREA_STYLE_COLOUR ( '', #188 ) ;
#188 = COLOUR_RGB ( '',0.7529411764705882200, 0.7529411764705882200, 0.7529411764705882200 ) ;
#189 = FACE_OUTER_BOUND ( 'NONE', #39, .T. ) ;
#190 =( GEOMETRIC_REPRESENTATION_CONTEXT ( 3 ) GLOBAL_UNCERTAINTY_ASSIGNED_CONTEXT ( ( #191 ) ) GLOBAL_UNIT_ASSIGNED_CONTEXT ( ( #194, #193, #192 ) ) REPRESENTATION_CONTEXT ( 'NONE', 'WORKASPACE' ) );
#191 = UNCERTAINTY_MEASURE_WITH_UNIT (LENGTH_MEASURE( 1.000000000000000100E-005 ), #194, 'distance_accuracy_value', 'NONE');
#192 =( NAMED_UNIT ( * ) SI_UNIT ( $, .STERADIAN. ) SOLID_ANGLE_UNIT ( ) );
#193 =( NAMED_UNIT ( * ) PLANE_ANGLE_UNIT ( ) SI_UNIT ( $, .RADIAN. ) );
#194 =( CONVERSION_BASED_UNIT ( 'INCH', #195 ) LENGTH_UNIT ( ) NAMED_UNIT ( #138 ) );
#195 = LENGTH_MEASURE_WITH_UNIT ( LENGTH_MEASURE( 0.02539999999999999900 ), #139 );
#196 =( LENGTH_UNIT ( ) NAMED_UNIT ( * ) SI_UNIT ( $, .METRE. ) );
#197 = MECHANICAL_DESIGN_GEOMETRIC_PRESENTATION_REPRESENTATION (  '', ( #199 ), #248 ) ;
#198 = PRESENTATION_LAYER_ASSIGNMENT (  '', '', ( #199 ) ) ;
#199 = STYLED_ITEM ( 'NONE', ( #200 ), #57 ) ;
#200 = PRESENTATION_STYLE_ASSIGNMENT (( #201 ) ) ;
#201 = SURFACE_STYLE_USAGE ( .BOTH. , #202 ) ;
#202 = SURFACE_SIDE_STYLE ('',( #203 ) ) ;
#203 = SURFACE_STYLE_FILL_AREA ( #204 ) ;
#204 = FILL_AREA_STYLE ('',( #205 ) ) ;
#205 = FILL_AREA_STYLE_COLOUR ( '', #206 ) ;
#206 = COLOUR_RGB ( '',0.7529411764705882200, 0.7529411764705882200, 0.7529411764705882200 ) ;
#207 = DIRECTION ( 'NONE',  ( 0.0000000000000000000, 0.0000000000000000000, -1.000000000000000000 ) ) ;
#208 = DIRECTION ( 'NONE',  ( 1.000000000000000000, 0.0000000000000000000, 0.0000000000000000000 ) ) ;
#209 = CARTESIAN_POINT ( 'NONE',  ( -3.462008789174868500, 1.358932922870714100, 0.8722530675037537500 ) ) ;
#210 = AXIS2_PLACEMENT_3D ( 'NONE', #209, #208, #207 ) ;
#211 = CIRCLE ( 'NONE', #210, 1.000000000000001300 ) ;
#212 = FACE_OUTER_BOUND ( 'NONE', #58, .T. ) ;
#213 = CARTESIAN_POINT ( 'NONE',  ( -3.462008789174867700, 2.358932922870714300, 0.8722530675037537500 ) ) ;
#214 = CARTESIAN_POINT ( 'NONE',  ( -3.525766923001311800, 1.358932922870714800, 0.8722530675037537500 ) ) ;
#215 = DIRECTION ( 'NONE',  ( -1.000000000000000000, 0.0000000000000000000, 0.0000000000000000000 ) ) ;
#216 = DIRECTION ( 'NONE',  ( 0.0000000000000000000, 0.0000000000000000000, -1.000000000000000000 ) ) ;
#217 = CARTESIAN_POINT ( 'NONE',  ( 4.348248825030185400, 1.358932922870714100, 0.8722530675037537500 ) ) ;
#218 = AXIS2_PLACEMENT_3D ( 'NONE', #217, #216, #215 ) ;
#219 = CIRCLE ( 'NONE', #218, 7.874015748031496300 ) ;
#220 = DIRECTION ( 'NONE',  ( 0.0000000000000000000, 1.000000000000000000, 0.0000000000000000000 ) ) ;
#221 = DIRECTION ( 'NONE',  ( 0.0000000000000000000, 0.0000000000000000000, 1.000000000000000000 ) ) ;
#222 = AXIS2_PLACEMENT_3D ( 'NONE', #224, #221, #220 ) ;
#223 = SPHERICAL_SURFACE ( 'NONE', #222, 7.874015748031496300 ) ;
#224 = CARTESIAN_POINT ( 'NONE',  ( 4.348248825030185400, 1.358932922870714100, 0.8722530675037537500 ) ) ;
#225 =( GEOMETRIC_REPRESENTATION_CONTEXT ( 3 ) GLOBAL_UNCERTAINTY_ASSIGNED_CONTEXT ( ( #226 ) ) GLOBAL_UNIT_ASSIGNED_CONTEXT ( ( #175, #174, #173 ) ) REPRESENTATION_CONTEXT ( 'NONE', 'WORKASPACE' ) );
#226 = UNCERTAINTY_MEASURE_WITH_UNIT (LENGTH_MEASURE( 1.000000000000000100E-005 ), #175, 'distance_accuracy_value', 'NONE');
#227 = MECHANICAL_DESIGN_GEOMETRIC_PRESENTATION_REPRESENTATION (  '', ( #229 ), #274 ) ;
#228 = PRESENTATION_LAYER_ASSIGNMENT (  '', '', ( #229 ) ) ;
#229 = STYLED_ITEM ( 'NONE', ( #230 ), #66 ) ;
#230 = PRESENTATION_STYLE_ASSIGNMENT (( #231 ) ) ;
#231 = SURFACE_STYLE_USAGE ( .BOTH. , #232 ) ;
#232 = SURFACE_SIDE_STYLE ('',( #233 ) ) ;
#233 = SURFACE_STYLE_FILL_AREA ( #234 ) ;
#234 = FILL_AREA_STYLE ('',( #242 ) ) ;
#235 = COLOUR_RGB ( '',0.7529411764705882200, 0.7529411764705882200, 0.7529411764705882200 ) ;
#236 = FACE_OUTER_BOUND ( 'NONE', #67, .T. ) ;
#237 = DIRECTION ( 'NONE',  ( 0.0000000000000000000, 0.0000000000000000000, -1.000000000000000000 ) ) ;
#238 = DIRECTION ( 'NONE',  ( 1.000000000000000000, 0.0000000000000000000, 0.0000000000000000000 ) ) ;
#239 = CARTESIAN_POINT ( 'NONE',  ( -3.085671799012580600, 1.358932922870714100, 0.8722530675037537500 ) ) ;
#240 = AXIS2_PLACEMENT_3D ( 'NONE', #239, #238, #237 ) ;
#241 = CIRCLE ( 'NONE', #240, 1.000000000000000000 ) ;
#242 = FILL_AREA_STYLE_COLOUR ( '', #235 ) ;
#243 = DIRECTION ( 'NONE',  ( 0.0000000000000000000, 1.000000000000000000, 0.0000000000000000000 ) ) ;
#244 = DIRECTION ( 'NONE',  ( 0.0000000000000000000, 0.0000000000000000000, 1.000000000000000000 ) ) ;
#245 = AXIS2_PLACEMENT_3D ( 'NONE', #247, #244, #243 ) ;
#246 = SPHERICAL_SURFACE ( 'NONE', #245, 7.874015748031496300 ) ;
#247 = CARTESIAN_POINT ( 'NONE',  ( 4.348248825030185400, 1.358932922870714100, 0.8722530675037537500 ) ) ;
#248 =( GEOMETRIC_REPRESENTATION_CONTEXT ( 3 ) GLOBAL_UNCERTAINTY_ASSIGNED_CONTEXT ( ( #249 ) ) GLOBAL_UNIT_ASSIGNED_CONTEXT ( ( #252, #251, #250 ) ) REPRESENTATION_CONTEXT ( 'NONE', 'WORKASPACE' ) );
#249 = UNCERTAINTY_MEASURE_WITH_UNIT (LENGTH_MEASURE( 1.000000000000000100E-005 ), #252, 'distance_accuracy_value', 'NONE');
#250 =( NAMED_UNIT ( * ) SI_UNIT ( $, .STERADIAN. ) SOLID_ANGLE_UNIT ( ) );
#251 =( NAMED_UNIT ( * ) PLANE_ANGLE_UNIT ( ) SI_UNIT ( $, .RADIAN. ) );
#252 =( CONVERSION_BASED_UNIT ( 'INCH', #253 ) LENGTH_UNIT ( ) NAMED_UNIT ( #254 ) );
#253 = LENGTH_MEASURE_WITH_UNIT ( LENGTH_MEASURE( 0.02539999999999999900 ), #196 );
#254 = DIMENSIONAL_EXPONENTS ( 1.000000000000000000, 0.0000000000000000000, 0.0000000000000000000, 0.0000000000000000000, 0.0000000000000000000, 0.0000000000000000000, 0.0000000000000000000 ) ;
#255 = STYLED_ITEM ( 'NONE', ( #256 ), #73 ) ;
#256 = PRESENTATION_STYLE_ASSIGNMENT (( #257 ) ) ;
#257 = SURFACE_STYLE_USAGE ( .BOTH. , #258 ) ;
#258 = SURFACE_SIDE_STYLE ('',( #259 ) ) ;
#259 = SURFACE_STYLE_FILL_AREA ( #260 ) ;
#260 = FILL_AREA_STYLE ('',( #268 ) ) ;
#261 = COLOUR_RGB ( '',0.7529411764705882200, 0.7529411764705882200, 0.7529411764705882200 ) ;
#262 = FACE_OUTER_BOUND ( 'NONE', #74, .T. ) ;
#263 = DIRECTION ( 'NONE',  ( 0.0000000000000000000, 0.0000000000000000000, -1.000000000000000000 ) ) ;
#264 = DIRECTION ( 'NONE',  ( 1.000000000000000000, 0.0000000000000000000, 0.0000000000000000000 ) ) ;
#265 = CARTESIAN_POINT ( 'NONE',  ( -3.085671799012580600, 1.358932922870714100, 0.8722530675037537500 ) ) ;
#266 = AXIS2_PLACEMENT_3D ( 'NONE', #265, #264, #263 ) ;
#267 = CIRCLE ( 'NONE', #266, 1.000000000000000000 ) ;
#268 = FILL_AREA_STYLE_COLOUR ( '', #261 ) ;
#269 = DIRECTION ( 'NONE',  ( 0.0000000000000000000, 1.000000000000000000, 0.0000000000000000000 ) ) ;
#270 = DIRECTION ( 'NONE',  ( 0.0000000000000000000, 0.0000000000000000000, 1.000000000000000000 ) ) ;
#271 = AXIS2_PLACEMENT_3D ( 'NONE', #273, #270, #269 ) ;
#272 = SPHERICAL_SURFACE ( 'NONE', #271, 2.177165354330707000 ) ;
#273 = CARTESIAN_POINT ( 'NONE',  ( -1.151751174969817000, 1.358932922870714100, 0.8722530675037537500 ) ) ;
#274 =( GEOMETRIC_REPRESENTATION_CONTEXT ( 3 ) GLOBAL_UNCERTAINTY_ASSIGNED_CONTEXT ( ( #275 ) ) GLOBAL_UNIT_ASSIGNED_CONTEXT ( ( #278, #277, #276 ) ) REPRESENTATION_CONTEXT ( 'NONE', 'WORKASPACE' ) );
#275 = UNCERTAINTY_MEASURE_WITH_UNIT (LENGTH_MEASURE( 1.000000000000000100E-005 ), #278, 'distance_accuracy_value', 'NONE');
#276 =( NAMED_UNIT ( * ) SI_UNIT ( $, .STERADIAN. ) SOLID_ANGLE_UNIT ( ) );
#277 =( NAMED_UNIT ( * ) PLANE_ANGLE_UNIT ( ) SI_UNIT ( $, .RADIAN. ) );
#278 =( CONVERSION_BASED_UNIT ( 'INCH', #279 ) LENGTH_UNIT ( ) NAMED_UNIT ( #280 ) );
#279 = LENGTH_MEASURE_WITH_UNIT ( LENGTH_MEASURE( 0.02539999999999999900 ), #281 );
#280 = DIMENSIONAL_EXPONENTS ( 1.000000000000000000, 0.0000000000000000000, 0.0000000000000000000, 0.0000000000000000000, 0.0000000000000000000, 0.0000000000000000000, 0.0000000000000000000 ) ;
#281 =( LENGTH_UNIT ( ) NAMED_UNIT ( * ) SI_UNIT ( $, .METRE. ) );
#282 = CARTESIAN_POINT ( 'NONE',  ( -3.085671799012580600, 1.358932922870714100, -0.1277469324962462700 ) ) ;
#283 = DIRECTION ( 'NONE',  ( 0.0000000000000000000, 0.0000000000000000000, -1.000000000000000000 ) ) ;
#284 = DIRECTION ( 'NONE',  ( 1.000000000000000000, 0.0000000000000000000, 0.0000000000000000000 ) ) ;
#285 = AXIS2_PLACEMENT_3D ( 'NONE', #291, #284, #283 ) ;
#286 = CIRCLE ( 'NONE', #285, 1.000000000000000000 ) ;
#287 = DIRECTION ( 'NONE',  ( 0.0000000000000000000, 0.0000000000000000000, -1.000000000000000000 ) ) ;
#288 = DIRECTION ( 'NONE',  ( 1.000000000000000000, 0.0000000000000000000, 0.0000000000000000000 ) ) ;
#289 = AXIS2_PLACEMENT_3D ( 'NONE', #292, #288, #287 ) ;
#290 = CYLINDRICAL_SURFACE ( 'NONE', #289, 1.000000000000000700 ) ;
#291 = CARTESIAN_POINT ( 'NONE',  ( -3.085671799012580600, 1.358932922870714100, 0.8722530675037537500 ) ) ;
#292 = CARTESIAN_POINT ( 'NONE',  ( -3.328916529300524300, 1.358932922870714100, 0.8722530675037537500 ) ) ;
#293 =( GEOMETRIC_REPRESENTATION_CONTEXT ( 3 ) GLOBAL_UNCERTAINTY_ASSIGNED_CONTEXT ( ( #294 ) ) GLOBAL_UNIT_ASSIGNED_CONTEXT ( ( #297, #296, #295 ) ) REPRESENTATION_CONTEXT ( 'NONE', 'WORKASPACE' ) );
#294 = UNCERTAINTY_MEASURE_WITH_UNIT (LENGTH_MEASURE( 1.000000000000000100E-005 ), #297, 'distance_accuracy_value', 'NONE');
#295 =( NAMED_UNIT ( * ) SI_UNIT ( $, .STERADIAN. ) SOLID_ANGLE_UNIT ( ) );
#296 =( NAMED_UNIT ( * ) PLANE_ANGLE_UNIT ( ) SI_UNIT ( $, .RADIAN. ) );
#297 =( CONVERSION_BASED_UNIT ( 'INCH', #298 ) LENGTH_UNIT ( ) NAMED_UNIT ( #299 ) );
#298 = LENGTH_MEASURE_WITH_UNIT ( LENGTH_MEASURE( 0.02539999999999999900 ), #300 );
#299 = DIMENSIONAL_EXPONENTS ( 1.000000000000000000, 0.0000000000000000000, 0.0000000000000000000, 0.0000000000000000000, 0.0000000000000000000, 0.0000000000000000000, 0.0000000000000000000 ) ;
#300 =( LENGTH_UNIT ( ) NAMED_UNIT ( * ) SI_UNIT ( $, .METRE. ) );
#301 = MECHANICAL_DESIGN_GEOMETRIC_PRESENTATION_REPRESENTATION (  '', ( #255 ), #293 ) ;
#302 = PRESENTATION_LAYER_ASSIGNMENT (  '', '', ( #255 ) ) ;
#303 = AXIS2_PLACEMENT_3D ( 'NONE', #316, #305, #304 ) ;
#304 = DIRECTION ( 'NONE',  ( 1.000000000000000000, 0.0000000000000000000, 0.0000000000000000000 ) ) ;
#305 = DIRECTION ( 'NONE',  ( 0.0000000000000000000, 0.0000000000000000000, 1.000000000000000000 ) ) ;
#306 = SHAPE_DEFINITION_REPRESENTATION ( #321, #307 ) ;
#307 = ADVANCED_BREP_SHAPE_REPRESENTATION ( '4880-E0W', ( #37, #303 ), #308 ) ;
#308 =( GEOMETRIC_REPRESENTATION_CONTEXT ( 3 ) GLOBAL_UNCERTAINTY_ASSIGNED_CONTEXT ( ( #309 ) ) GLOBAL_UNIT_ASSIGNED_CONTEXT ( ( #312, #311, #310 ) ) REPRESENTATION_CONTEXT ( 'NONE', 'WORKASPACE' ) );
#309 = UNCERTAINTY_MEASURE_WITH_UNIT (LENGTH_MEASURE( 1.000000000000000100E-005 ), #312, 'distance_accuracy_value', 'NONE');
#310 =( NAMED_UNIT ( * ) SI_UNIT ( $, .STERADIAN. ) SOLID_ANGLE_UNIT ( ) );
#311 =( NAMED_UNIT ( * ) PLANE_ANGLE_UNIT ( ) SI_UNIT ( $, .RADIAN. ) );
#312 =( CONVERSION_BASED_UNIT ( 'INCH', #313 ) LENGTH_UNIT ( ) NAMED_UNIT ( #314 ) );
#313 = LENGTH_MEASURE_WITH_UNIT ( LENGTH_MEASURE( 0.02539999999999999900 ), #315 );
#314 = DIMENSIONAL_EXPONENTS ( 1.000000000000000000, 0.0000000000000000000, 0.0000000000000000000, 0.0000000000000000000, 0.0000000000000000000, 0.0000000000000000000, 0.0000000000000000000 ) ;
#315 =( LENGTH_UNIT ( ) NAMED_UNIT ( * ) SI_UNIT ( $, .METRE. ) );
#316 = CARTESIAN_POINT ( 'NONE',  ( 0.0000000000000000000, 0.0000000000000000000, 0.0000000000000000000 ) ) ;
#317 = DIRECTION ( 'NONE',  ( 1.000000000000000000, 0.0000000000000000000, 0.0000000000000000000 ) ) ;
#318 = VECTOR ( 'NONE', #317, 39.37007874015748100 ) ;
#319 = CARTESIAN_POINT ( 'NONE',  ( -3.328916529300524300, 1.358932922870714100, -0.1277469324962469700 ) ) ;
#320 = LINE ( 'NONE', #319, #318 ) ;
#321 = PRODUCT_DEFINITION_SHAPE ( 'NONE', 'NONE',  #324 ) ;
#322 = PRODUCT_RELATED_PRODUCT_CATEGORY ( 'part', '', ( #328 ) ) ;
#323 = PRODUCT_DEFINITION_FORMATION_WITH_SPECIFIED_SOURCE ( 'ANY', '', #328, .NOT_KNOWN. ) ;
#324 = PRODUCT_DEFINITION ( 'UNKNOWN', '', #323, #325 ) ;
#325 = PRODUCT_DEFINITION_CONTEXT ( 'detailed design', #327, 'design' ) ;
#326 = APPLICATION_PROTOCOL_DEFINITION ( 'draft international standard', 'automotive_design', 1998, #327 ) ;
#327 = APPLICATION_CONTEXT ( 'automotive_design' ) ;
#328 = PRODUCT ( '4880-E0W', '4880-E0W', '', ( #329 ) ) ;
#329 = PRODUCT_CONTEXT ( 'NONE', #331, 'mechanical' ) ;
#330 = APPLICATION_PROTOCOL_DEFINITION ( 'draft international standard', 'automotive_design', 1998, #331 ) ;
#331 = APPLICATION_CONTEXT ( 'automotive_design' ) ;
ENDSEC;
END-ISO-10303-21;
