ISO-10303-21;
HEADER;
FILE_DESCRIPTION (( 'STEP AP203' ),
    '1' );
FILE_NAME ('24980-E0W.STEP',
    '2015-04-28T20:37:07',
    ( 'Admin' ),
    ( '' ),
    'SwSTEP 2.0',
    'SolidWorks 2014',
    '' );
FILE_SCHEMA (( 'CONFIG_CONTROL_DESIGN' ));
ENDSEC;

DATA;
#1 = DIRECTION ( 'NONE',  ( 0.0000000000000000000, 0.0000000000000000000, 1.000000000000000000 ) ) ;
#2 = CYLINDRICAL_SURFACE ( 'NONE', #19, 12.69999999999999900 ) ;
#3 = COORDINATED_UNIVERSAL_TIME_OFFSET ( 5, 0, .BEHIND. ) ;
#4 = CC_DESIGN_PERSON_AND_ORGANIZATION_ASSIGNMENT ( #48, #194, ( #59 ) ) ;
#5 = ORIENTED_EDGE ( 'NONE', *, *, #245, .F. ) ;
#6 = PERSON_AND_ORGANIZATION ( #243, #32 ) ;
#7 = VERTEX_POINT ( 'NONE', #113 ) ;
#8 = VECTOR ( 'NONE', #101, 1000.000000000000000 ) ;
#9 =( NAMED_UNIT ( * ) PLANE_ANGLE_UNIT ( ) SI_UNIT ( $, .RADIAN. ) );
#10 = CARTESIAN_POINT ( 'NONE',  ( 0.0000000000000000000, -8.315500818264992100E-015, -37.95060855119437800 ) ) ;
#11 = ADVANCED_FACE ( 'NONE', ( #248 ), #210, .T. ) ;
#12 = PRODUCT_DEFINITION_SHAPE ( 'NONE', 'NONE',  #191 ) ;
#13 = TOROIDAL_SURFACE ( 'NONE', #85, 0.003543497455670278900, 16.10000000000000100 ) ;
#14 = CARTESIAN_POINT ( 'NONE',  ( 0.0000000000000000000, -12.55857864376269400, -4.099999999999997900 ) ) ;
#15 = FACE_OUTER_BOUND ( 'NONE', #114, .T. ) ;
#16 = CALENDAR_DATE ( 2015, 28, 4 ) ;
#17 = CARTESIAN_POINT ( 'NONE',  ( 0.0000000000000000000, -4.157750409132496100E-015, -4.099999999999999600 ) ) ;
#18 = DIRECTION ( 'NONE',  ( -0.0000000000000000000, -1.228264597620001800E-016, -1.000000000000000000 ) ) ;
#19 = AXIS2_PLACEMENT_3D ( 'NONE', #10, #70, #50 ) ;
#20 = LINE ( 'NONE', #84, #8 ) ;
#21 = DIRECTION ( 'NONE',  ( 0.0000000000000000000, 1.000000000000000000, -1.381305580180739800E-016 ) ) ;
#22 = DIRECTION ( 'NONE',  ( 0.0000000000000000000, 1.000000000000000000, -1.228264597620001800E-016 ) ) ;
#23 = CC_DESIGN_PERSON_AND_ORGANIZATION_ASSIGNMENT ( #174, #118, ( #191 ) ) ;
#24 = DATE_AND_TIME ( #87, #204 ) ;
#25 = AXIS2_PLACEMENT_3D ( 'NONE', #138, #241, #52 ) ;
#26 = DIRECTION ( 'NONE',  ( -0.0000000000000000000, -1.228264597620001800E-016, -1.000000000000000000 ) ) ;
#27 = PERSON_AND_ORGANIZATION ( #243, #32 ) ;
#28 = CARTESIAN_POINT ( 'NONE',  ( 0.0000000000000000000, -4.157750409132496100E-015, -4.099999999999999600 ) ) ;
#29 = CARTESIAN_POINT ( 'NONE',  ( 0.0000000000000000000, 12.69999999999999000, -37.95060855119437800 ) ) ;
#30 = EDGE_CURVE ( 'NONE', #92, #61, #190, .T. ) ;
#31 = EDGE_CURVE ( 'NONE', #61, #92, #227, .T. ) ;
#32 = ORGANIZATION ( 'UNSPECIFIED', 'UNSPECIFIED', '' ) ;
#33 = CARTESIAN_POINT ( 'NONE',  ( 0.0000000000000000000, -5.127937462677534300E-015, -11.99999961005048700 ) ) ;
#34 = CARTESIAN_POINT ( 'NONE',  ( 0.0000000000000000000, -4.157750409132496100E-015, -4.099999999999999600 ) ) ;
#35 = ORIENTED_EDGE ( 'NONE', *, *, #131, .T. ) ;
#36 = ORIENTED_EDGE ( 'NONE', *, *, #168, .T. ) ;
#37 = ORIENTED_EDGE ( 'NONE', *, *, #244, .T. ) ;
#38 = CARTESIAN_POINT ( 'NONE',  ( 0.0000000000000000000, -5.174207252424800500E-015, 4.099999999999999600 ) ) ;
#39 = APPROVAL_STATUS ( 'not_yet_approved' ) ;
#40 = VERTEX_POINT ( 'NONE', #14 ) ;
#41 = CYLINDRICAL_SURFACE ( 'NONE', #25, 12.69999999999999900 ) ;
#42 = CALENDAR_DATE ( 2015, 28, 4 ) ;
#43 = EDGE_LOOP ( 'NONE', ( #195, #205, #137, #239 ) ) ;
#44 = DATE_AND_TIME ( #42, #66 ) ;
#45 = DIRECTION ( 'NONE',  ( -0.0000000000000000000, -1.228264597620001800E-016, -1.000000000000000000 ) ) ;
#46 = CC_DESIGN_PERSON_AND_ORGANIZATION_ASSIGNMENT ( #73, #217, ( #49 ) ) ;
#47 = DIRECTION ( 'NONE',  ( -1.224646799147353200E-016, 1.000000000000000000, 0.0000000000000000000 ) ) ;
#48 = PERSON_AND_ORGANIZATION ( #243, #32 ) ;
#49 = SECURITY_CLASSIFICATION ( '', '', #57 ) ;
#50 = DIRECTION ( 'NONE',  ( 0.0000000000000000000, 1.000000000000000000, 0.0000000000000000000 ) ) ;
#51 = EDGE_CURVE ( 'NONE', #40, #7, #20, .T. ) ;
#52 = DIRECTION ( 'NONE',  ( 0.0000000000000000000, 1.000000000000000000, 0.0000000000000000000 ) ) ;
#53 = CIRCLE ( 'NONE', #160, 16.10000000000000100 ) ;
#54 = APPROVAL_DATE_TIME ( #24, #163 ) ;
#55 = AXIS2_PLACEMENT_3D ( 'NONE', #171, #145, #152 ) ;
#56 = CARTESIAN_POINT ( 'NONE',  ( 0.0000000000000000000, -4.140380124611125900E-015, -3.958578643762686400 ) ) ;
#57 = SECURITY_CLASSIFICATION_LEVEL ( 'unclassified' ) ;
#58 = AXIS2_PLACEMENT_3D ( 'NONE', #197, #26, #68 ) ;
#59 = PRODUCT_DEFINITION_FORMATION_WITH_SPECIFIED_SOURCE ( 'ANY', '', #106, .NOT_KNOWN. ) ;
#60 = CARTESIAN_POINT ( 'NONE',  ( 4.339532816873396900E-019, -0.003543497455675406700, -11.99999961005048700 ) ) ;
#61 = VERTEX_POINT ( 'NONE', #233 ) ;
#62 = APPROVAL_ROLE ( '' ) ;
#63 = EDGE_LOOP ( 'NONE', ( #200, #172, #35, #192 ) ) ;
#64 = CALENDAR_DATE ( 2015, 28, 4 ) ;
#65 = ORIENTED_EDGE ( 'NONE', *, *, #169, .T. ) ;
#66 = LOCAL_TIME ( 16, 37, 7.000000000000000000, #3 ) ;
#67 = CC_DESIGN_APPROVAL ( #142, ( #59 ) ) ;
#68 = DIRECTION ( 'NONE',  ( 0.0000000000000000000, 1.000000000000000000, -1.365923996832131600E-016 ) ) ;
#69 = AXIS2_PLACEMENT_3D ( 'NONE', #148, #188, #117 ) ;
#70 = DIRECTION ( 'NONE',  ( -0.0000000000000000000, -1.228264597620001800E-016, -1.000000000000000000 ) ) ;
#71 = ORIENTED_EDGE ( 'NONE', *, *, #209, .T. ) ;
#72 = FACE_OUTER_BOUND ( 'NONE', #77, .T. ) ;
#73 = PERSON_AND_ORGANIZATION ( #243, #32 ) ;
#74 = ADVANCED_FACE ( 'NONE', ( #179 ), #41, .T. ) ;
#75 = APPROVAL_PERSON_ORGANIZATION ( #27, #202, #62 ) ;
#76 = CIRCLE ( 'NONE', #218, 12.55857864376269000 ) ;
#77 = EDGE_LOOP ( 'NONE', ( #177, #36, #229 ) ) ;
#78 = CARTESIAN_POINT ( 'NONE',  ( 0.0000000000000000000, 12.69999999999999600, -2.099999999999999600 ) ) ;
#79 = DIRECTION ( 'NONE',  ( 0.0000000000000000000, 0.0000000000000000000, 1.000000000000000000 ) ) ;
#80 = COORDINATED_UNIVERSAL_TIME_OFFSET ( 5, 0, .BEHIND. ) ;
#81 = AXIS2_PLACEMENT_3D ( 'NONE', #196, #135, #182 ) ;
#82 = PERSON_AND_ORGANIZATION_ROLE ( 'design_owner' ) ;
#83 = ORIENTED_EDGE ( 'NONE', *, *, #132, .T. ) ;
#84 = CARTESIAN_POINT ( 'NONE',  ( 0.0000000000000000000, -12.55857864376269200, -4.099999999999997900 ) ) ;
#85 = AXIS2_PLACEMENT_3D ( 'NONE', #115, #123, #246 ) ;
#86 = DIRECTION ( 'NONE',  ( 0.0000000000000000000, -1.000000000000000000, 1.381305580180740100E-016 ) ) ;
#87 = CALENDAR_DATE ( 2015, 28, 4 ) ;
#88 = APPLICATION_PROTOCOL_DEFINITION ( 'international standard', 'config_control_design', 1994, #108 ) ;
#89 = COORDINATED_UNIVERSAL_TIME_OFFSET ( 5, 0, .BEHIND. ) ;
#90 = LOCAL_TIME ( 16, 37, 7.000000000000000000, #89 ) ;
#91 = EDGE_LOOP ( 'NONE', ( #198, #83, #119, #5 ) ) ;
#92 = VERTEX_POINT ( 'NONE', #78 ) ;
#93 = PERSON_AND_ORGANIZATION ( #243, #32 ) ;
#94 = EDGE_CURVE ( 'NONE', #99, #61, #53, .T. ) ;
#95 = CIRCLE ( 'NONE', #221, 12.69999999999999900 ) ;
#96 = CARTESIAN_POINT ( 'NONE',  ( 1.555301434917138200E-015, 12.69999999999999400, -3.958578643762688200 ) ) ;
#97 = EDGE_LOOP ( 'NONE', ( #162, #128, #207 ) ) ;
#98 = DIRECTION ( 'NONE',  ( 1.000000000000000000, 0.0000000000000000000, 0.0000000000000000000 ) ) ;
#99 = VERTEX_POINT ( 'NONE', #38 ) ;
#100 = APPROVAL_DATE_TIME ( #140, #142 ) ;
#101 = DIRECTION ( 'NONE',  ( 0.0000000000000000000, -0.7071067811865388000, 0.7071067811865563400 ) ) ;
#102 = CC_DESIGN_SECURITY_CLASSIFICATION ( #49, ( #59 ) ) ;
#103 =( LENGTH_UNIT ( ) NAMED_UNIT ( * ) SI_UNIT ( .MILLI., .METRE. ) );
#104 = CC_DESIGN_DATE_AND_TIME_ASSIGNMENT ( #44, #208, ( #191 ) ) ;
#105 = VERTEX_POINT ( 'NONE', #96 ) ;
#106 = PRODUCT ( '24980-E0W', '24980-E0W', '', ( #107 ) ) ;
#107 = MECHANICAL_CONTEXT ( 'NONE', #110, 'mechanical' ) ;
#108 = APPLICATION_CONTEXT ( 'configuration controlled 3d designs of mechanical parts and assemblies' ) ;
#109 = CARTESIAN_POINT ( 'NONE',  ( 0.0000000000000000000, -3.912097489608495700E-015, -2.099999999999997900 ) ) ;
#110 = APPLICATION_CONTEXT ( 'configuration controlled 3d designs of mechanical parts and assemblies' ) ;
#111 = ADVANCED_FACE ( 'NONE', ( #15 ), #199, .T. ) ;
#112 = CIRCLE ( 'NONE', #159, 12.55857864376269000 ) ;
#113 = CARTESIAN_POINT ( 'NONE',  ( 0.0000000000000000000, -12.70000000000000100, -3.958578643762684600 ) ) ;
#114 = EDGE_LOOP ( 'NONE', ( #71, #37 ) ) ;
#115 = CARTESIAN_POINT ( 'NONE',  ( 0.0000000000000000000, -5.127937462677534300E-015, -11.99999961005048700 ) ) ;
#116 =( NAMED_UNIT ( * ) SI_UNIT ( $, .STERADIAN. ) SOLID_ANGLE_UNIT ( ) );
#117 = DIRECTION ( 'NONE',  ( 0.0000000000000000000, 1.000000000000000000, -1.365923996832131600E-016 ) ) ;
#118 = PERSON_AND_ORGANIZATION_ROLE ( 'creator' ) ;
#119 = ORIENTED_EDGE ( 'NONE', *, *, #131, .F. ) ;
#120 = LINE ( 'NONE', #129, #234 ) ;
#121 =( GEOMETRIC_REPRESENTATION_CONTEXT ( 3 ) GLOBAL_UNCERTAINTY_ASSIGNED_CONTEXT ( ( #250 ) ) GLOBAL_UNIT_ASSIGNED_CONTEXT ( ( #103, #9, #116 ) ) REPRESENTATION_CONTEXT ( 'NONE', 'WORKASPACE' ) );
#122 = PERSON_AND_ORGANIZATION_ROLE ( 'creator' ) ;
#123 = DIRECTION ( 'NONE',  ( -0.0000000000000000000, -1.228264597620001800E-016, -1.000000000000000000 ) ) ;
#124 = COORDINATED_UNIVERSAL_TIME_OFFSET ( 5, 0, .BEHIND. ) ;
#125 = LINE ( 'NONE', #29, #183 ) ;
#126 = CC_DESIGN_DATE_AND_TIME_ASSIGNMENT ( #242, #228, ( #49 ) ) ;
#127 = DIRECTION ( 'NONE',  ( -0.0000000000000000000, -1.228264597620001800E-016, -1.000000000000000000 ) ) ;
#128 = ORIENTED_EDGE ( 'NONE', *, *, #94, .T. ) ;
#129 = CARTESIAN_POINT ( 'NONE',  ( 1.555301434917138400E-015, -12.70000000000000800, -37.95060855119437800 ) ) ;
#130 = DESIGN_CONTEXT ( 'detailed design', #108, 'design' ) ;
#131 = EDGE_CURVE ( 'NONE', #105, #7, #134, .T. ) ;
#132 = EDGE_CURVE ( 'NONE', #61, #7, #120, .T. ) ;
#133 = DIRECTION ( 'NONE',  ( -0.0000000000000000000, -1.228264597620001800E-016, -1.000000000000000000 ) ) ;
#134 = CIRCLE ( 'NONE', #58, 12.69999999999999900 ) ;
#135 = DIRECTION ( 'NONE',  ( 0.0000000000000000000, 1.228264597620001800E-016, 1.000000000000000000 ) ) ;
#136 = DATE_AND_TIME ( #64, #237 ) ;
#137 = ORIENTED_EDGE ( 'NONE', *, *, #245, .T. ) ;
#138 = CARTESIAN_POINT ( 'NONE',  ( 0.0000000000000000000, -8.315500818264992100E-015, -37.95060855119437800 ) ) ;
#139 = APPROVAL_ROLE ( '' ) ;
#140 = DATE_AND_TIME ( #236, #184 ) ;
#141 = FACE_OUTER_BOUND ( 'NONE', #231, .T. ) ;
#142 = APPROVAL ( #39, 'UNSPECIFIED' ) ;
#143 = AXIS2_PLACEMENT_3D ( 'NONE', #109, #133, #165 ) ;
#144 = PERSON_AND_ORGANIZATION ( #243, #32 ) ;
#145 = DIRECTION ( 'NONE',  ( 0.0000000000000000000, -1.228264597620001800E-016, -1.000000000000000000 ) ) ;
#146 = ORIENTED_EDGE ( 'NONE', *, *, #189, .F. ) ;
#147 = VECTOR ( 'NONE', #167, 1000.000000000000000 ) ;
#148 = CARTESIAN_POINT ( 'NONE',  ( 0.0000000000000000000, -3.912097489608495700E-015, -2.099999999999997900 ) ) ;
#149 = ADVANCED_FACE ( 'NONE', ( #222 ), #2, .T. ) ;
#150 = SHAPE_DEFINITION_REPRESENTATION ( #12, #249 ) ;
#151 = ADVANCED_FACE ( 'NONE', ( #181 ), #13, .T. ) ;
#152 = DIRECTION ( 'NONE',  ( 0.0000000000000000000, 1.000000000000000000, -1.228264597620001800E-016 ) ) ;
#153 = CC_DESIGN_PERSON_AND_ORGANIZATION_ASSIGNMENT ( #93, #82, ( #106 ) ) ;
#154 = CLOSED_SHELL ( 'NONE', ( #151, #74, #11, #111, #225, #149, #201 ) ) ;
#155 = DIRECTION ( 'NONE',  ( -0.0000000000000000000, -1.228264597620001800E-016, -1.000000000000000000 ) ) ;
#156 = AXIS2_PLACEMENT_3D ( 'NONE', #235, #175, #1 ) ;
#157 = APPLICATION_PROTOCOL_DEFINITION ( 'international standard', 'config_control_design', 1994, #110 ) ;
#158 = ORIENTED_EDGE ( 'NONE', *, *, #51, .T. ) ;
#159 = AXIS2_PLACEMENT_3D ( 'NONE', #34, #215, #21 ) ;
#160 = AXIS2_PLACEMENT_3D ( 'NONE', #60, #203, #47 ) ;
#161 = CARTESIAN_POINT ( 'NONE',  ( 1.537982313792428500E-015, 12.55857864376268500, -4.100000000000001400 ) ) ;
#162 = ORIENTED_EDGE ( 'NONE', *, *, #168, .F. ) ;
#163 = APPROVAL ( #223, 'UNSPECIFIED' ) ;
#164 = DIRECTION ( 'NONE',  ( 0.0000000000000000000, 1.228264597620001800E-016, 1.000000000000000000 ) ) ;
#165 = DIRECTION ( 'NONE',  ( 0.0000000000000000000, 1.000000000000000000, -1.365923996832131600E-016 ) ) ;
#166 = CARTESIAN_POINT ( 'NONE',  ( 0.0000000000000000000, 0.0000000000000000000, 0.0000000000000000000 ) ) ;
#167 = DIRECTION ( 'NONE',  ( 8.659560562354828100E-017, 0.7071067811865390200, 0.7071067811865561200 ) ) ;
#168 = EDGE_CURVE ( 'NONE', #99, #92, #170, .T. ) ;
#169 = EDGE_CURVE ( 'NONE', #7, #105, #95, .T. ) ;
#170 = CIRCLE ( 'NONE', #156, 16.10000000000000100 ) ;
#171 = CARTESIAN_POINT ( 'NONE',  ( 0.0000000000000000000, -4.169996877123971000E-015, -4.099999999999998800 ) ) ;
#172 = ORIENTED_EDGE ( 'NONE', *, *, #189, .T. ) ;
#173 = AXIS2_PLACEMENT_3D ( 'NONE', #28, #164, #86 ) ;
#174 = PERSON_AND_ORGANIZATION ( #243, #32 ) ;
#175 = DIRECTION ( 'NONE',  ( -1.000000000000000000, 0.0000000000000000000, 0.0000000000000000000 ) ) ;
#176 = APPROVAL_ROLE ( '' ) ;
#177 = ORIENTED_EDGE ( 'NONE', *, *, #94, .F. ) ;
#178 = ORIENTED_EDGE ( 'NONE', *, *, #209, .F. ) ;
#179 = FACE_OUTER_BOUND ( 'NONE', #91, .T. ) ;
#180 = VERTEX_POINT ( 'NONE', #185 ) ;
#181 = FACE_OUTER_BOUND ( 'NONE', #97, .T. ) ;
#182 = DIRECTION ( 'NONE',  ( 0.0000000000000000000, -1.000000000000000000, 1.381305580180740100E-016 ) ) ;
#183 = VECTOR ( 'NONE', #230, 1000.000000000000000 ) ;
#184 = LOCAL_TIME ( 16, 37, 7.000000000000000000, #251 ) ;
#185 = CARTESIAN_POINT ( 'NONE',  ( 1.546641874354783400E-015, 12.55857864376268700, -4.100000000000001400 ) ) ;
#186 = DIRECTION ( 'NONE',  ( 0.0000000000000000000, 1.000000000000000000, -1.381305580180739800E-016 ) ) ;
#187 = CC_DESIGN_APPROVAL ( #202, ( #191 ) ) ;
#188 = DIRECTION ( 'NONE',  ( -0.0000000000000000000, -1.228264597620001800E-016, -1.000000000000000000 ) ) ;
#189 = EDGE_CURVE ( 'NONE', #180, #105, #214, .T. ) ;
#190 = CIRCLE ( 'NONE', #143, 12.69999999999999900 ) ;
#191 = PRODUCT_DEFINITION ( 'UNKNOWN', '', #59, #130 ) ;
#192 = ORIENTED_EDGE ( 'NONE', *, *, #51, .F. ) ;
#193 = AXIS2_PLACEMENT_3D ( 'NONE', #166, #79, #98 ) ;
#194 = PERSON_AND_ORGANIZATION_ROLE ( 'design_supplier' ) ;
#195 = ORIENTED_EDGE ( 'NONE', *, *, #132, .F. ) ;
#196 = CARTESIAN_POINT ( 'NONE',  ( 0.0000000000000000000, -4.157750409132496100E-015, -4.099999999999999600 ) ) ;
#197 = CARTESIAN_POINT ( 'NONE',  ( 0.0000000000000000000, -4.140380124611125900E-015, -3.958578643762686400 ) ) ;
#198 = ORIENTED_EDGE ( 'NONE', *, *, #30, .T. ) ;
#199 = PLANE ( 'NONE',  #55 ) ;
#200 = ORIENTED_EDGE ( 'NONE', *, *, #244, .F. ) ;
#201 = ADVANCED_FACE ( 'NONE', ( #72 ), #212, .T. ) ;
#202 = APPROVAL ( #224, 'UNSPECIFIED' ) ;
#203 = DIRECTION ( 'NONE',  ( 1.000000000000000000, 1.224646799147353200E-016, -1.504190307981346900E-032 ) ) ;
#204 = LOCAL_TIME ( 16, 37, 7.000000000000000000, #80 ) ;
#205 = ORIENTED_EDGE ( 'NONE', *, *, #31, .T. ) ;
#206 = APPROVAL_PERSON_ORGANIZATION ( #6, #142, #176 ) ;
#207 = ORIENTED_EDGE ( 'NONE', *, *, #30, .F. ) ;
#208 = DATE_TIME_ROLE ( 'creation_date' ) ;
#209 = EDGE_CURVE ( 'NONE', #40, #180, #76, .T. ) ;
#210 = CONICAL_SURFACE ( 'NONE', #173, 12.55857864376268800, 0.7853981633974360700 ) ;
#211 = AXIS2_PLACEMENT_3D ( 'NONE', #33, #155, #22 ) ;
#212 = TOROIDAL_SURFACE ( 'NONE', #211, 0.003543497455670278900, 16.10000000000000100 ) ;
#213 = APPROVAL_DATE_TIME ( #136, #202 ) ;
#214 = LINE ( 'NONE', #161, #147 ) ;
#215 = DIRECTION ( 'NONE',  ( -0.0000000000000000000, -1.228264597620001800E-016, -1.000000000000000000 ) ) ;
#216 = APPROVAL_PERSON_ORGANIZATION ( #240, #163, #139 ) ;
#217 = PERSON_AND_ORGANIZATION_ROLE ( 'classification_officer' ) ;
#218 = AXIS2_PLACEMENT_3D ( 'NONE', #17, #45, #186 ) ;
#219 = CC_DESIGN_PERSON_AND_ORGANIZATION_ASSIGNMENT ( #144, #122, ( #59 ) ) ;
#220 = DIRECTION ( 'NONE',  ( 0.0000000000000000000, 1.000000000000000000, -1.365923996832131600E-016 ) ) ;
#221 = AXIS2_PLACEMENT_3D ( 'NONE', #56, #18, #220 ) ;
#222 = FACE_OUTER_BOUND ( 'NONE', #43, .T. ) ;
#223 = APPROVAL_STATUS ( 'not_yet_approved' ) ;
#224 = APPROVAL_STATUS ( 'not_yet_approved' ) ;
#225 = ADVANCED_FACE ( 'NONE', ( #141 ), #247, .T. ) ;
#226 = CC_DESIGN_APPROVAL ( #163, ( #49 ) ) ;
#227 = CIRCLE ( 'NONE', #69, 12.69999999999999900 ) ;
#228 = DATE_TIME_ROLE ( 'classification_date' ) ;
#229 = ORIENTED_EDGE ( 'NONE', *, *, #31, .F. ) ;
#230 = DIRECTION ( 'NONE',  ( -0.0000000000000000000, -1.228264597620001800E-016, -1.000000000000000000 ) ) ;
#231 = EDGE_LOOP ( 'NONE', ( #146, #178, #158, #65 ) ) ;
#232 = MANIFOLD_SOLID_BREP ( '24980-001-1-solid1', #154 ) ;
#233 = CARTESIAN_POINT ( 'NONE',  ( 1.555301434917138400E-015, -12.70000000000000300, -2.099999999999996100 ) ) ;
#234 = VECTOR ( 'NONE', #127, 1000.000000000000000 ) ;
#235 = CARTESIAN_POINT ( 'NONE',  ( 0.0000000000000000000, 0.003543497455665151100, -11.99999961005048700 ) ) ;
#236 = CALENDAR_DATE ( 2015, 28, 4 ) ;
#237 = LOCAL_TIME ( 16, 37, 7.000000000000000000, #124 ) ;
#238 = PRODUCT_RELATED_PRODUCT_CATEGORY ( 'detail', '', ( #106 ) ) ;
#239 = ORIENTED_EDGE ( 'NONE', *, *, #169, .F. ) ;
#240 = PERSON_AND_ORGANIZATION ( #243, #32 ) ;
#241 = DIRECTION ( 'NONE',  ( -0.0000000000000000000, -1.228264597620001800E-016, -1.000000000000000000 ) ) ;
#242 = DATE_AND_TIME ( #16, #90 ) ;
#243 = PERSON ( 'UNSPECIFIED', 'UNSPECIFIED', 'UNSPECIFIED', ('UNSPECIFIED'), ('UNSPECIFIED'), ('UNSPECIFIED') ) ;
#244 = EDGE_CURVE ( 'NONE', #180, #40, #112, .T. ) ;
#245 = EDGE_CURVE ( 'NONE', #92, #105, #125, .T. ) ;
#246 = DIRECTION ( 'NONE',  ( 0.0000000000000000000, 1.000000000000000000, -1.228264597620001800E-016 ) ) ;
#247 = CONICAL_SURFACE ( 'NONE', #81, 12.55857864376268800, 0.7853981633974360700 ) ;
#248 = FACE_OUTER_BOUND ( 'NONE', #63, .T. ) ;
#249 = ADVANCED_BREP_SHAPE_REPRESENTATION ( '24980-E0W', ( #232, #193 ), #121 ) ;
#250 = UNCERTAINTY_MEASURE_WITH_UNIT (LENGTH_MEASURE( 1.000000000000000100E-005 ), #103, 'distance_accuracy_value', 'NONE');
#251 = COORDINATED_UNIVERSAL_TIME_OFFSET ( 5, 0, .BEHIND. ) ;
ENDSEC;
END-ISO-10303-21;
