ISO-10303-21;
HEADER;
FILE_DESCRIPTION (( 'STEP AP203' ),
    '1' );
FILE_NAME ('Web Model 39404_39416.step',
    '2018-10-05T20:57:02',
    ( '' ),
    ( '' ),
    'SwSTEP 2.0',
    'SolidWorks 2016',
    '' );
FILE_SCHEMA (( 'CONFIG_CONTROL_DESIGN' ));
ENDSEC;

DATA;
#1 = VECTOR ( 'NONE', #12, 1000.000000000000000 ) ;
#2 = PRODUCT_RELATED_PRODUCT_CATEGORY ( 'detail', '', ( #164 ) ) ;
#3 = AXIS2_PLACEMENT_3D ( 'NONE', #76, #41, #80 ) ;
#4 = SECURITY_CLASSIFICATION ( '', '', #31 ) ;
#5 = MANIFOLD_SOLID_BREP ( 'Boss-Extrude1', #64 ) ;
#6 = CIRCLE ( 'NONE', #115, 25.39999999999999900 ) ;
#7 = DATE_AND_TIME ( #51, #87 ) ;
#8 = EDGE_CURVE ( 'NONE', #129, #59, #88, .T. ) ;
#9 = DIRECTION ( 'NONE',  ( 0.0000000000000000000, 0.0000000000000000000, 1.000000000000000000 ) ) ;
#10 = CARTESIAN_POINT ( 'NONE',  ( 0.0000000000000000000, 0.0000000000000000000, 2.500000000000000000 ) ) ;
#11 = CARTESIAN_POINT ( 'NONE',  ( 0.0000000000000000000, 0.0000000000000000000, 2.500000000000000000 ) ) ;
#12 = DIRECTION ( 'NONE',  ( -0.0000000000000000000, -0.0000000000000000000, -1.000000000000000000 ) ) ;
#13 =( NAMED_UNIT ( * ) SI_UNIT ( $, .STERADIAN. ) SOLID_ANGLE_UNIT ( ) );
#14 = EDGE_CURVE ( 'NONE', #74, #129, #93, .T. ) ;
#15 = APPROVAL_ROLE ( '' ) ;
#16 = ORIENTED_EDGE ( 'NONE', *, *, #117, .T. ) ;
#17 = CC_DESIGN_APPROVAL ( #167, ( #4 ) ) ;
#18 = CALENDAR_DATE ( 2018, 5, 10 ) ;
#19 = ORIENTED_EDGE ( 'NONE', *, *, #140, .F. ) ;
#20 = PERSON_AND_ORGANIZATION ( #36, #63 ) ;
#21 = LOCAL_TIME ( 16, 57, 2.000000000000000000, #50 ) ;
#22 = CARTESIAN_POINT ( 'NONE',  ( 25.39999999999999900, 3.110602869834276900E-015, -2.500000000000000000 ) ) ;
#23 = ORIENTED_EDGE ( 'NONE', *, *, #8, .T. ) ;
#24 = PERSON_AND_ORGANIZATION ( #36, #63 ) ;
#25 = CARTESIAN_POINT ( 'NONE',  ( 0.0000000000000000000, 0.0000000000000000000, 0.0000000000000000000 ) ) ;
#26 = DIRECTION ( 'NONE',  ( -1.000000000000000000, 0.0000000000000000000, 0.0000000000000000000 ) ) ;
#27 = DIRECTION ( 'NONE',  ( -0.0000000000000000000, -0.0000000000000000000, -1.000000000000000000 ) ) ;
#28 = LOCAL_TIME ( 16, 57, 2.000000000000000000, #89 ) ;
#29 = APPROVAL_ROLE ( '' ) ;
#30 = EDGE_LOOP ( 'NONE', ( #136, #78 ) ) ;
#31 = SECURITY_CLASSIFICATION_LEVEL ( 'unclassified' ) ;
#32 = SHAPE_DEFINITION_REPRESENTATION ( #130, #62 ) ;
#33 = MECHANICAL_CONTEXT ( 'NONE', #108, 'mechanical' ) ;
#34 = ORIENTED_EDGE ( 'NONE', *, *, #172, .T. ) ;
#35 = COORDINATED_UNIVERSAL_TIME_OFFSET ( 5, 0, .BEHIND. ) ;
#36 = PERSON ( 'UNSPECIFIED', 'UNSPECIFIED', 'UNSPECIFIED', ('UNSPECIFIED'), ('UNSPECIFIED'), ('UNSPECIFIED') ) ;
#37 = EDGE_LOOP ( 'NONE', ( #19, #23, #53, #142 ) ) ;
#38 = PRODUCT_DEFINITION_FORMATION_WITH_SPECIFIED_SOURCE ( 'ANY', '', #164, .NOT_KNOWN. ) ;
#39 = CC_DESIGN_PERSON_AND_ORGANIZATION_ASSIGNMENT ( #138, #45, ( #4 ) ) ;
#40 = FACE_OUTER_BOUND ( 'NONE', #112, .T. ) ;
#41 = DIRECTION ( 'NONE',  ( 0.0000000000000000000, 0.0000000000000000000, 1.000000000000000000 ) ) ;
#42 = FACE_OUTER_BOUND ( 'NONE', #174, .T. ) ;
#43 = AXIS2_PLACEMENT_3D ( 'NONE', #121, #118, #100 ) ;
#44 = CARTESIAN_POINT ( 'NONE',  ( 25.39999999999999900, 3.110602869834276900E-015, 2.500000000000000000 ) ) ;
#45 = PERSON_AND_ORGANIZATION_ROLE ( 'classification_officer' ) ;
#46 = APPROVAL ( #175, 'UNSPECIFIED' ) ;
#47 = DIRECTION ( 'NONE',  ( 1.000000000000000000, 0.0000000000000000000, 0.0000000000000000000 ) ) ;
#48 = VECTOR ( 'NONE', #27, 1000.000000000000000 ) ;
#49 = CC_DESIGN_PERSON_AND_ORGANIZATION_ASSIGNMENT ( #90, #107, ( #60 ) ) ;
#50 = COORDINATED_UNIVERSAL_TIME_OFFSET ( 5, 0, .BEHIND. ) ;
#51 = CALENDAR_DATE ( 2018, 5, 10 ) ;
#52 = FACE_OUTER_BOUND ( 'NONE', #37, .T. ) ;
#53 = ORIENTED_EDGE ( 'NONE', *, *, #103, .T. ) ;
#54 = CC_DESIGN_PERSON_AND_ORGANIZATION_ASSIGNMENT ( #98, #147, ( #38 ) ) ;
#55 = DATE_TIME_ROLE ( 'creation_date' ) ;
#56 =( GEOMETRIC_REPRESENTATION_CONTEXT ( 3 ) GLOBAL_UNCERTAINTY_ASSIGNED_CONTEXT ( ( #122 ) ) GLOBAL_UNIT_ASSIGNED_CONTEXT ( ( #71, #145, #13 ) ) REPRESENTATION_CONTEXT ( 'NONE', 'WORKASPACE' ) );
#57 = APPLICATION_CONTEXT ( 'configuration controlled 3d designs of mechanical parts and assemblies' ) ;
#58 = DATE_TIME_ROLE ( 'classification_date' ) ;
#59 = VERTEX_POINT ( 'NONE', #22 ) ;
#60 = PRODUCT_DEFINITION ( 'UNKNOWN', '', #38, #144 ) ;
#61 = CIRCLE ( 'NONE', #99, 25.39999999999999900 ) ;
#62 = ADVANCED_BREP_SHAPE_REPRESENTATION ( 'Web Model 39404_39416', ( #5, #149 ), #56 ) ;
#63 = ORGANIZATION ( 'UNSPECIFIED', 'UNSPECIFIED', '' ) ;
#64 = CLOSED_SHELL ( 'NONE', ( #161, #110, #146, #123 ) ) ;
#65 = CARTESIAN_POINT ( 'NONE',  ( 0.0000000000000000000, 0.0000000000000000000, -2.500000000000000000 ) ) ;
#66 = DIRECTION ( 'NONE',  ( -1.000000000000000000, 0.0000000000000000000, 0.0000000000000000000 ) ) ;
#67 = VERTEX_POINT ( 'NONE', #82 ) ;
#68 = DIRECTION ( 'NONE',  ( 0.0000000000000000000, 0.0000000000000000000, 1.000000000000000000 ) ) ;
#69 = CC_DESIGN_DATE_AND_TIME_ASSIGNMENT ( #127, #58, ( #4 ) ) ;
#70 = DATE_AND_TIME ( #18, #28 ) ;
#71 =( LENGTH_UNIT ( ) NAMED_UNIT ( * ) SI_UNIT ( .MILLI., .METRE. ) );
#72 = APPROVAL_STATUS ( 'not_yet_approved' ) ;
#73 = AXIS2_PLACEMENT_3D ( 'NONE', #92, #91, #66 ) ;
#74 = VERTEX_POINT ( 'NONE', #139 ) ;
#75 = DATE_AND_TIME ( #111, #21 ) ;
#76 = CARTESIAN_POINT ( 'NONE',  ( 0.0000000000000000000, 0.0000000000000000000, 2.500000000000000000 ) ) ;
#77 = PLANE ( 'NONE',  #137 ) ;
#78 = ORIENTED_EDGE ( 'NONE', *, *, #140, .T. ) ;
#79 = CC_DESIGN_APPROVAL ( #46, ( #38 ) ) ;
#80 = DIRECTION ( 'NONE',  ( 1.000000000000000000, 0.0000000000000000000, -0.0000000000000000000 ) ) ;
#81 = DATE_AND_TIME ( #143, #97 ) ;
#82 = CARTESIAN_POINT ( 'NONE',  ( -25.39999999999999900, 0.0000000000000000000, -2.500000000000000000 ) ) ;
#83 = PERSON_AND_ORGANIZATION_ROLE ( 'design_supplier' ) ;
#84 = CC_DESIGN_DATE_AND_TIME_ASSIGNMENT ( #7, #55, ( #60 ) ) ;
#85 = PERSON_AND_ORGANIZATION ( #36, #63 ) ;
#86 = CC_DESIGN_PERSON_AND_ORGANIZATION_ASSIGNMENT ( #131, #125, ( #164 ) ) ;
#87 = LOCAL_TIME ( 16, 57, 2.000000000000000000, #151 ) ;
#88 = LINE ( 'NONE', #44, #48 ) ;
#89 = COORDINATED_UNIVERSAL_TIME_OFFSET ( 5, 0, .BEHIND. ) ;
#90 = PERSON_AND_ORGANIZATION ( #36, #63 ) ;
#91 = DIRECTION ( 'NONE',  ( -0.0000000000000000000, -0.0000000000000000000, -1.000000000000000000 ) ) ;
#92 = CARTESIAN_POINT ( 'NONE',  ( 0.0000000000000000000, 0.0000000000000000000, 2.500000000000000000 ) ) ;
#93 = CIRCLE ( 'NONE', #126, 25.39999999999999900 ) ;
#94 = APPLICATION_PROTOCOL_DEFINITION ( 'international standard', 'config_control_design', 1994, #108 ) ;
#95 = APPROVAL_ROLE ( '' ) ;
#96 = APPROVAL_STATUS ( 'not_yet_approved' ) ;
#97 = LOCAL_TIME ( 16, 57, 2.000000000000000000, #113 ) ;
#98 = PERSON_AND_ORGANIZATION ( #36, #63 ) ;
#99 = AXIS2_PLACEMENT_3D ( 'NONE', #11, #9, #134 ) ;
#100 = DIRECTION ( 'NONE',  ( 1.000000000000000000, 0.0000000000000000000, 0.0000000000000000000 ) ) ;
#101 = DIRECTION ( 'NONE',  ( 1.000000000000000000, 0.0000000000000000000, 0.0000000000000000000 ) ) ;
#102 = CARTESIAN_POINT ( 'NONE',  ( 0.0000000000000000000, 0.0000000000000000000, -2.500000000000000000 ) ) ;
#103 = EDGE_CURVE ( 'NONE', #59, #67, #6, .T. ) ;
#104 = CARTESIAN_POINT ( 'NONE',  ( -25.39999999999999900, 0.0000000000000000000, 2.500000000000000000 ) ) ;
#105 = DIRECTION ( 'NONE',  ( 1.000000000000000000, 0.0000000000000000000, -0.0000000000000000000 ) ) ;
#106 = ORIENTED_EDGE ( 'NONE', *, *, #8, .F. ) ;
#107 = PERSON_AND_ORGANIZATION_ROLE ( 'creator' ) ;
#108 = APPLICATION_CONTEXT ( 'configuration controlled 3d designs of mechanical parts and assemblies' ) ;
#109 = LINE ( 'NONE', #104, #1 ) ;
#110 = ADVANCED_FACE ( 'NONE', ( #40 ), #166, .T. ) ;
#111 = CALENDAR_DATE ( 2018, 5, 10 ) ;
#112 = EDGE_LOOP ( 'NONE', ( #106, #158, #16, #34 ) ) ;
#113 = COORDINATED_UNIVERSAL_TIME_OFFSET ( 5, 0, .BEHIND. ) ;
#114 = PERSON_AND_ORGANIZATION ( #36, #63 ) ;
#115 = AXIS2_PLACEMENT_3D ( 'NONE', #65, #152, #101 ) ;
#116 = PLANE ( 'NONE',  #3 ) ;
#117 = EDGE_CURVE ( 'NONE', #74, #67, #109, .T. ) ;
#118 = DIRECTION ( 'NONE',  ( 0.0000000000000000000, 0.0000000000000000000, 1.000000000000000000 ) ) ;
#119 = DIRECTION ( 'NONE',  ( -0.0000000000000000000, -0.0000000000000000000, -1.000000000000000000 ) ) ;
#120 = DIRECTION ( 'NONE',  ( 0.0000000000000000000, 0.0000000000000000000, 1.000000000000000000 ) ) ;
#121 = CARTESIAN_POINT ( 'NONE',  ( 0.0000000000000000000, 0.0000000000000000000, -2.500000000000000000 ) ) ;
#122 = UNCERTAINTY_MEASURE_WITH_UNIT (LENGTH_MEASURE( 1.000000000000000100E-005 ), #71, 'distance_accuracy_value', 'NONE');
#123 = ADVANCED_FACE ( 'NONE', ( #42 ), #77, .F. ) ;
#124 = FACE_OUTER_BOUND ( 'NONE', #30, .T. ) ;
#125 = PERSON_AND_ORGANIZATION_ROLE ( 'design_owner' ) ;
#126 = AXIS2_PLACEMENT_3D ( 'NONE', #10, #68, #157 ) ;
#127 = DATE_AND_TIME ( #160, #162 ) ;
#128 = CC_DESIGN_APPROVAL ( #133, ( #60 ) ) ;
#129 = VERTEX_POINT ( 'NONE', #153 ) ;
#130 = PRODUCT_DEFINITION_SHAPE ( 'NONE', 'NONE',  #60 ) ;
#131 = PERSON_AND_ORGANIZATION ( #36, #63 ) ;
#132 = APPROVAL_DATE_TIME ( #75, #46 ) ;
#133 = APPROVAL ( #96, 'UNSPECIFIED' ) ;
#134 = DIRECTION ( 'NONE',  ( 1.000000000000000000, 0.0000000000000000000, 0.0000000000000000000 ) ) ;
#135 = CC_DESIGN_SECURITY_CLASSIFICATION ( #4, ( #38 ) ) ;
#136 = ORIENTED_EDGE ( 'NONE', *, *, #14, .T. ) ;
#137 = AXIS2_PLACEMENT_3D ( 'NONE', #102, #155, #105 ) ;
#138 = PERSON_AND_ORGANIZATION ( #36, #63 ) ;
#139 = CARTESIAN_POINT ( 'NONE',  ( -25.39999999999999900, 0.0000000000000000000, 2.500000000000000000 ) ) ;
#140 = EDGE_CURVE ( 'NONE', #129, #74, #61, .T. ) ;
#141 = CIRCLE ( 'NONE', #43, 25.39999999999999900 ) ;
#142 = ORIENTED_EDGE ( 'NONE', *, *, #117, .F. ) ;
#143 = CALENDAR_DATE ( 2018, 5, 10 ) ;
#144 = DESIGN_CONTEXT ( 'detailed design', #57, 'design' ) ;
#145 =( NAMED_UNIT ( * ) PLANE_ANGLE_UNIT ( ) SI_UNIT ( $, .RADIAN. ) );
#146 = ADVANCED_FACE ( 'NONE', ( #124 ), #116, .T. ) ;
#147 = PERSON_AND_ORGANIZATION_ROLE ( 'creator' ) ;
#148 = APPROVAL_PERSON_ORGANIZATION ( #85, #133, #95 ) ;
#149 = AXIS2_PLACEMENT_3D ( 'NONE', #25, #120, #47 ) ;
#150 = CYLINDRICAL_SURFACE ( 'NONE', #156, 25.39999999999999900 ) ;
#151 = COORDINATED_UNIVERSAL_TIME_OFFSET ( 5, 0, .BEHIND. ) ;
#152 = DIRECTION ( 'NONE',  ( 0.0000000000000000000, 0.0000000000000000000, 1.000000000000000000 ) ) ;
#153 = CARTESIAN_POINT ( 'NONE',  ( 25.39999999999999900, 3.110602869834276900E-015, 2.500000000000000000 ) ) ;
#154 = APPROVAL_PERSON_ORGANIZATION ( #20, #167, #29 ) ;
#155 = DIRECTION ( 'NONE',  ( 0.0000000000000000000, 0.0000000000000000000, 1.000000000000000000 ) ) ;
#156 = AXIS2_PLACEMENT_3D ( 'NONE', #171, #119, #26 ) ;
#157 = DIRECTION ( 'NONE',  ( 1.000000000000000000, 0.0000000000000000000, 0.0000000000000000000 ) ) ;
#158 = ORIENTED_EDGE ( 'NONE', *, *, #14, .F. ) ;
#159 = APPLICATION_PROTOCOL_DEFINITION ( 'international standard', 'config_control_design', 1994, #57 ) ;
#160 = CALENDAR_DATE ( 2018, 5, 10 ) ;
#161 = ADVANCED_FACE ( 'NONE', ( #52 ), #150, .T. ) ;
#162 = LOCAL_TIME ( 16, 57, 2.000000000000000000, #35 ) ;
#163 = ORIENTED_EDGE ( 'NONE', *, *, #172, .F. ) ;
#164 = PRODUCT ( 'Web Model 39404_39416', 'Web Model 39404_39416', '', ( #33 ) ) ;
#165 = APPROVAL_DATE_TIME ( #70, #133 ) ;
#166 = CYLINDRICAL_SURFACE ( 'NONE', #73, 25.39999999999999900 ) ;
#167 = APPROVAL ( #72, 'UNSPECIFIED' ) ;
#168 = APPROVAL_PERSON_ORGANIZATION ( #114, #46, #15 ) ;
#169 = ORIENTED_EDGE ( 'NONE', *, *, #103, .F. ) ;
#170 = CC_DESIGN_PERSON_AND_ORGANIZATION_ASSIGNMENT ( #24, #83, ( #38 ) ) ;
#171 = CARTESIAN_POINT ( 'NONE',  ( 0.0000000000000000000, 0.0000000000000000000, 2.500000000000000000 ) ) ;
#172 = EDGE_CURVE ( 'NONE', #67, #59, #141, .T. ) ;
#173 = APPROVAL_DATE_TIME ( #81, #167 ) ;
#174 = EDGE_LOOP ( 'NONE', ( #163, #169 ) ) ;
#175 = APPROVAL_STATUS ( 'not_yet_approved' ) ;
ENDSEC;
END-ISO-10303-21;
