ISO-10303-21;
HEADER;
FILE_DESCRIPTION (( 'STEP AP203' ),
    '1' );
FILE_NAME ('4284-E0W.STEP',
    '2015-05-29T14:21:55',
    ( 'admin' ),
    ( '' ),
    'SwSTEP 2.0',
    'SolidWorks 2014',
    '' );
FILE_SCHEMA (( 'CONFIG_CONTROL_DESIGN' ));
ENDSEC;

DATA;
#1 = DIRECTION ( 'NONE',  ( 0.7071067811865426900, 0.0000000000000000000, -0.7071067811865524600 ) ) ;
#2 = TOROIDAL_SURFACE ( 'NONE', #157, -0.1129833856528678100, 69.00000000000000000 ) ;
#3 = EDGE_CURVE ( 'NONE', #299, #89, #107, .T. ) ;
#4 = DIRECTION ( 'NONE',  ( 0.0000000000000000000, -1.224646799147353200E-016, 1.000000000000000000 ) ) ;
#5 = LINE ( 'NONE', #31, #216 ) ;
#6 = ORIENTED_EDGE ( 'NONE', *, *, #260, .F. ) ;
#7 = ORIENTED_EDGE ( 'NONE', *, *, #63, .F. ) ;
#8 = CARTESIAN_POINT ( 'NONE',  ( -67.39990749815949300, 0.0000000000000000000, -0.1129833856528678100 ) ) ;
#9 = PLANE ( 'NONE',  #111 ) ;
#10 = DESIGN_CONTEXT ( 'detailed design', #162, 'design' ) ;
#11 = CONICAL_SURFACE ( 'NONE', #84, 12.44999999999999600, 0.7853981633974552700 ) ;
#12 = FACE_OUTER_BOUND ( 'NONE', #142, .T. ) ;
#13 = AXIS2_PLACEMENT_3D ( 'NONE', #155, #207, #253 ) ;
#14 = CARTESIAN_POINT ( 'NONE',  ( 0.1499999999965417900, 1.555301434917138400E-015, -12.69999999999999900 ) ) ;
#15 = CYLINDRICAL_SURFACE ( 'NONE', #13, 12.69999999999999900 ) ;
#16 = VERTEX_POINT ( 'NONE', #14 ) ;
#17 = DATE_TIME_ROLE ( 'classification_date' ) ;
#18 = EDGE_CURVE ( 'NONE', #171, #215, #106, .T. ) ;
#19 = CALENDAR_DATE ( 2015, 29, 5 ) ;
#20 = AXIS2_PLACEMENT_3D ( 'NONE', #235, #236, #53 ) ;
#21 = APPROVAL_STATUS ( 'not_yet_approved' ) ;
#22 = DIRECTION ( 'NONE',  ( -1.000000000000000000, -0.0000000000000000000, -0.0000000000000000000 ) ) ;
#23 = CALENDAR_DATE ( 2015, 29, 5 ) ;
#24 = COORDINATED_UNIVERSAL_TIME_OFFSET ( 5, 0, .BEHIND. ) ;
#25 = ADVANCED_FACE ( 'NONE', ( #109 ), #105, .T. ) ;
#26 = ORIENTED_EDGE ( 'NONE', *, *, #34, .F. ) ;
#27 = ORIENTED_EDGE ( 'NONE', *, *, #260, .T. ) ;
#28 = CARTESIAN_POINT ( 'NONE',  ( 0.1499999999965417900, 0.0000000000000000000, 12.69999999999999900 ) ) ;
#29 = APPROVAL_DATE_TIME ( #42, #284 ) ;
#30 = DIRECTION ( 'NONE',  ( 1.000000000000000000, 0.0000000000000000000, 0.0000000000000000000 ) ) ;
#31 = CARTESIAN_POINT ( 'NONE',  ( -1.600000000000000100, 1.555301434917138400E-015, -12.69999999999999900 ) ) ;
#32 = CC_DESIGN_PERSON_AND_ORGANIZATION_ASSIGNMENT ( #285, #110, ( #234 ) ) ;
#33 = DIRECTION ( 'NONE',  ( 1.000000000000000000, 0.0000000000000000000, 0.0000000000000000000 ) ) ;
#34 = EDGE_CURVE ( 'NONE', #185, #215, #217, .T. ) ;
#35 = PERSON_AND_ORGANIZATION ( #183, #170 ) ;
#36 = DIRECTION ( 'NONE',  ( 0.0000000000000000000, 0.0000000000000000000, 1.000000000000000000 ) ) ;
#37 = COORDINATED_UNIVERSAL_TIME_OFFSET ( 5, 0, .BEHIND. ) ;
#38 = CARTESIAN_POINT ( 'NONE',  ( -1.600000000000000100, 0.0000000000000000000, -12.44999999999999600 ) ) ;
#39 = CARTESIAN_POINT ( 'NONE',  ( -1.349999999999999900, 0.0000000000000000000, 0.0000000000000000000 ) ) ;
#40 = ADVANCED_FACE ( 'NONE', ( #87 ), #117, .T. ) ;
#41 = APPROVAL_PERSON_ORGANIZATION ( #205, #249, #254 ) ;
#42 = DATE_AND_TIME ( #261, #242 ) ;
#43 = EDGE_CURVE ( 'NONE', #299, #206, #139, .T. ) ;
#44 = DIRECTION ( 'NONE',  ( 0.0000000000000000000, 0.0000000000000000000, -1.000000000000000000 ) ) ;
#45 = EDGE_CURVE ( 'NONE', #185, #16, #101, .T. ) ;
#46 =( GEOMETRIC_REPRESENTATION_CONTEXT ( 3 ) GLOBAL_UNCERTAINTY_ASSIGNED_CONTEXT ( ( #256 ) ) GLOBAL_UNIT_ASSIGNED_CONTEXT ( ( #258, #95, #295 ) ) REPRESENTATION_CONTEXT ( 'NONE', 'WORKASPACE' ) );
#47 = ADVANCED_FACE ( 'NONE', ( #135 ), #2, .T. ) ;
#48 = VECTOR ( 'NONE', #86, 1000.000000000000000 ) ;
#49 = PERSON_AND_ORGANIZATION_ROLE ( 'creator' ) ;
#50 = ORIENTED_EDGE ( 'NONE', *, *, #224, .T. ) ;
#51 = ORIENTED_EDGE ( 'NONE', *, *, #43, .F. ) ;
#52 = EDGE_CURVE ( 'NONE', #300, #16, #115, .T. ) ;
#53 = DIRECTION ( 'NONE',  ( 0.0000000000000000000, 0.0000000000000000000, 1.000000000000000000 ) ) ;
#54 = DIRECTION ( 'NONE',  ( -1.000000000000000000, -0.0000000000000000000, -0.0000000000000000000 ) ) ;
#55 = ADVANCED_FACE ( 'NONE', ( #12 ), #15, .T. ) ;
#56 = APPROVAL_ROLE ( '' ) ;
#57 = EDGE_LOOP ( 'NONE', ( #26, #231, #102, #282 ) ) ;
#58 = DIRECTION ( 'NONE',  ( -1.000000000000000000, -0.0000000000000000000, -0.0000000000000000000 ) ) ;
#59 = LOCAL_TIME ( 10, 21, 55.00000000000000000, #70 ) ;
#60 = FACE_OUTER_BOUND ( 'NONE', #159, .T. ) ;
#61 = EDGE_LOOP ( 'NONE', ( #6, #225, #50, #92 ) ) ;
#62 = EDGE_LOOP ( 'NONE', ( #257, #250, #218, #154 ) ) ;
#63 = EDGE_CURVE ( 'NONE', #171, #185, #223, .T. ) ;
#64 = CARTESIAN_POINT ( 'NONE',  ( 0.4458797225402114100, 0.0000000000000000000, 12.45479909191819900 ) ) ;
#65 = CC_DESIGN_PERSON_AND_ORGANIZATION_ASSIGNMENT ( #290, #283, ( #174 ) ) ;
#66 = FACE_OUTER_BOUND ( 'NONE', #57, .T. ) ;
#67 = APPROVAL_ROLE ( '' ) ;
#68 = DIRECTION ( 'NONE',  ( 0.0000000000000000000, 0.0000000000000000000, 1.000000000000000000 ) ) ;
#69 = PRODUCT ( '4284-E0W', '4284-E0W', '', ( #221 ) ) ;
#70 = COORDINATED_UNIVERSAL_TIME_OFFSET ( 5, 0, .BEHIND. ) ;
#71 = ORIENTED_EDGE ( 'NONE', *, *, #176, .T. ) ;
#72 = EDGE_LOOP ( 'NONE', ( #197, #213, #184, #51 ) ) ;
#73 = AXIS2_PLACEMENT_3D ( 'NONE', #211, #232, #161 ) ;
#74 = APPROVAL_STATUS ( 'not_yet_approved' ) ;
#75 = ADVANCED_FACE ( 'NONE', ( #82 ), #11, .T. ) ;
#76 = CARTESIAN_POINT ( 'NONE',  ( -1.600000000000000100, 0.0000000000000000000, 0.0000000000000000000 ) ) ;
#77 = APPROVAL ( #21, 'UNSPECIFIED' ) ;
#78 = EDGE_LOOP ( 'NONE', ( #188, #71 ) ) ;
#79 = LINE ( 'NONE', #271, #48 ) ;
#80 = ORIENTED_EDGE ( 'NONE', *, *, #140, .F. ) ;
#81 = DIRECTION ( 'NONE',  ( 0.0000000000000000000, 0.0000000000000000000, 1.000000000000000000 ) ) ;
#82 = FACE_OUTER_BOUND ( 'NONE', #72, .T. ) ;
#83 = CIRCLE ( 'NONE', #301, 12.44999999999999600 ) ;
#84 = AXIS2_PLACEMENT_3D ( 'NONE', #201, #175, #44 ) ;
#85 = DIRECTION ( 'NONE',  ( 0.0000000000000000000, -1.000000000000000000, 0.0000000000000000000 ) ) ;
#86 = DIRECTION ( 'NONE',  ( 0.7071067811865426900, 8.659560562354994500E-017, 0.7071067811865524600 ) ) ;
#87 = FACE_OUTER_BOUND ( 'NONE', #61, .T. ) ;
#88 = CARTESIAN_POINT ( 'NONE',  ( 1.600000000000000100, 0.0000000000000000000, 0.0000000000000000000 ) ) ;
#89 = VERTEX_POINT ( 'NONE', #288 ) ;
#90 = CC_DESIGN_DATE_AND_TIME_ASSIGNMENT ( #113, #181, ( #297 ) ) ;
#91 = FACE_OUTER_BOUND ( 'NONE', #62, .T. ) ;
#92 = ORIENTED_EDGE ( 'NONE', *, *, #255, .T. ) ;
#93 = EDGE_CURVE ( 'NONE', #215, #185, #273, .T. ) ;
#94 = DIRECTION ( 'NONE',  ( -0.7699660419090680300, 7.814285868970802800E-017, -0.6380848645022723100 ) ) ;
#95 =( NAMED_UNIT ( * ) PLANE_ANGLE_UNIT ( ) SI_UNIT ( $, .RADIAN. ) );
#96 = PERSON_AND_ORGANIZATION ( #183, #170 ) ;
#97 = DIRECTION ( 'NONE',  ( 0.0000000000000000000, 0.0000000000000000000, 1.000000000000000000 ) ) ;
#98 = MANIFOLD_SOLID_BREP ( '4284-001-1-solid1', #169 ) ;
#99 = PERSON_AND_ORGANIZATION_ROLE ( 'creator' ) ;
#100 = AXIS2_PLACEMENT_3D ( 'NONE', #118, #200, #68 ) ;
#101 = LINE ( 'NONE', #279, #112 ) ;
#102 = ORIENTED_EDGE ( 'NONE', *, *, #52, .F. ) ;
#103 = DIRECTION ( 'NONE',  ( -0.0000000000000000000, 1.000000000000000000, 1.224646799147353200E-016 ) ) ;
#104 = APPLICATION_PROTOCOL_DEFINITION ( 'international standard', 'config_control_design', 1994, #219 ) ;
#105 = TOROIDAL_SURFACE ( 'NONE', #286, -0.1129833856528678100, 69.00000000000000000 ) ;
#106 = CIRCLE ( 'NONE', #238, 69.00000000000000000 ) ;
#107 = CIRCLE ( 'NONE', #226, 12.44999999999999600 ) ;
#108 = CC_DESIGN_APPROVAL ( #77, ( #297 ) ) ;
#109 = FACE_OUTER_BOUND ( 'NONE', #240, .T. ) ;
#110 = PERSON_AND_ORGANIZATION_ROLE ( 'design_supplier' ) ;
#111 = AXIS2_PLACEMENT_3D ( 'NONE', #144, #251, #179 ) ;
#112 = VECTOR ( 'NONE', #94, 1000.000000000000100 ) ;
#113 = DATE_AND_TIME ( #23, #147 ) ;
#114 = COORDINATED_UNIVERSAL_TIME_OFFSET ( 5, 0, .BEHIND. ) ;
#115 = CIRCLE ( 'NONE', #187, 12.69999999999999900 ) ;
#116 = SECURITY_CLASSIFICATION_LEVEL ( 'unclassified' ) ;
#117 = CYLINDRICAL_SURFACE ( 'NONE', #222, 12.69999999999999900 ) ;
#118 = CARTESIAN_POINT ( 'NONE',  ( 0.1499999999965417900, 0.0000000000000000000, 0.0000000000000000000 ) ) ;
#119 = APPLICATION_PROTOCOL_DEFINITION ( 'international standard', 'config_control_design', 1994, #162 ) ;
#120 = DIRECTION ( 'NONE',  ( 0.0000000000000000000, 0.0000000000000000000, 1.000000000000000000 ) ) ;
#121 = EDGE_LOOP ( 'NONE', ( #7, #192, #178 ) ) ;
#122 = DIRECTION ( 'NONE',  ( -1.000000000000000000, -0.0000000000000000000, -0.0000000000000000000 ) ) ;
#123 = ORIENTED_EDGE ( 'NONE', *, *, #189, .T. ) ;
#124 = PERSON_AND_ORGANIZATION_ROLE ( 'design_owner' ) ;
#125 = COORDINATED_UNIVERSAL_TIME_OFFSET ( 5, 0, .BEHIND. ) ;
#126 = LOCAL_TIME ( 10, 21, 55.00000000000000000, #125 ) ;
#127 = DIRECTION ( 'NONE',  ( -1.000000000000000000, -0.0000000000000000000, -0.0000000000000000000 ) ) ;
#128 = LINE ( 'NONE', #280, #152 ) ;
#129 = CC_DESIGN_PERSON_AND_ORGANIZATION_ASSIGNMENT ( #268, #49, ( #234 ) ) ;
#130 = CARTESIAN_POINT ( 'NONE',  ( -67.39990749815949300, 0.0000000000000000000, 0.0000000000000000000 ) ) ;
#131 = VECTOR ( 'NONE', #1, 1000.000000000000000 ) ;
#132 = DIRECTION ( 'NONE',  ( 0.0000000000000000000, 0.0000000000000000000, -1.000000000000000000 ) ) ;
#133 = CONICAL_SURFACE ( 'NONE', #20, 12.69999999999999900, 0.6920083956041411800 ) ;
#134 = FACE_OUTER_BOUND ( 'NONE', #78, .T. ) ;
#135 = FACE_OUTER_BOUND ( 'NONE', #121, .T. ) ;
#136 = EDGE_CURVE ( 'NONE', #89, #160, #79, .T. ) ;
#137 = SHAPE_DEFINITION_REPRESENTATION ( #237, #167 ) ;
#138 = CIRCLE ( 'NONE', #73, 12.69999999999999900 ) ;
#139 = LINE ( 'NONE', #38, #131 ) ;
#140 = EDGE_CURVE ( 'NONE', #16, #300, #287, .T. ) ;
#141 = DATE_AND_TIME ( #19, #126 ) ;
#142 = EDGE_LOOP ( 'NONE', ( #210, #27, #266, #156 ) ) ;
#143 = CONICAL_SURFACE ( 'NONE', #214, 12.44999999999999600, 0.7853981633974552700 ) ;
#144 = CARTESIAN_POINT ( 'NONE',  ( -1.600000000000000100, 0.0000000000000000000, 0.0000000000000000000 ) ) ;
#145 = DIRECTION ( 'NONE',  ( -1.000000000000000000, -0.0000000000000000000, -0.0000000000000000000 ) ) ;
#146 = CARTESIAN_POINT ( 'NONE',  ( 0.4458797225402044700, 0.0000000000000000000, 0.0000000000000000000 ) ) ;
#147 = LOCAL_TIME ( 10, 21, 55.00000000000000000, #37 ) ;
#148 = CONICAL_SURFACE ( 'NONE', #298, 12.69999999999999900, 0.6920083956041411800 ) ;
#149 = DIRECTION ( 'NONE',  ( 0.0000000000000000000, 0.0000000000000000000, 1.000000000000000000 ) ) ;
#150 = PERSON_AND_ORGANIZATION ( #183, #170 ) ;
#151 = CC_DESIGN_DATE_AND_TIME_ASSIGNMENT ( #198, #17, ( #174 ) ) ;
#152 = VECTOR ( 'NONE', #193, 1000.000000000000000 ) ;
#153 = CARTESIAN_POINT ( 'NONE',  ( -1.600000000000000100, 0.0000000000000000000, 0.0000000000000000000 ) ) ;
#154 = ORIENTED_EDGE ( 'NONE', *, *, #255, .F. ) ;
#155 = CARTESIAN_POINT ( 'NONE',  ( -1.600000000000000100, 0.0000000000000000000, 0.0000000000000000000 ) ) ;
#156 = ORIENTED_EDGE ( 'NONE', *, *, #224, .F. ) ;
#157 = AXIS2_PLACEMENT_3D ( 'NONE', #130, #145, #186 ) ;
#158 = DATE_AND_TIME ( #281, #59 ) ;
#159 = EDGE_LOOP ( 'NONE', ( #263, #276, #123, #80 ) ) ;
#160 = VERTEX_POINT ( 'NONE', #277 ) ;
#161 = DIRECTION ( 'NONE',  ( 0.0000000000000000000, 0.0000000000000000000, -1.000000000000000000 ) ) ;
#162 = APPLICATION_CONTEXT ( 'configuration controlled 3d designs of mechanical parts and assemblies' ) ;
#163 = DIRECTION ( 'NONE',  ( -0.7699660419090680300, 0.0000000000000000000, 0.6380848645022723100 ) ) ;
#164 = AXIS2_PLACEMENT_3D ( 'NONE', #146, #30, #196 ) ;
#165 = ORIENTED_EDGE ( 'NONE', *, *, #63, .T. ) ;
#166 = CC_DESIGN_APPROVAL ( #249, ( #174 ) ) ;
#167 = ADVANCED_BREP_SHAPE_REPRESENTATION ( '4284-E0W', ( #98, #195 ), #46 ) ;
#168 = CARTESIAN_POINT ( 'NONE',  ( -1.349999999999999900, 1.555301434917138400E-015, -12.69999999999999900 ) ) ;
#169 = CLOSED_SHELL ( 'NONE', ( #75, #270, #25, #55, #289, #40, #47, #292, #265 ) ) ;
#170 = ORGANIZATION ( 'UNSPECIFIED', 'UNSPECIFIED', '' ) ;
#171 = VERTEX_POINT ( 'NONE', #88 ) ;
#172 = CARTESIAN_POINT ( 'NONE',  ( -67.39990749815949300, 0.0000000000000000000, 0.0000000000000000000 ) ) ;
#173 = DIRECTION ( 'NONE',  ( -1.000000000000000000, -0.0000000000000000000, -0.0000000000000000000 ) ) ;
#174 = SECURITY_CLASSIFICATION ( '', '', #116 ) ;
#175 = DIRECTION ( 'NONE',  ( 1.000000000000000000, 0.0000000000000000000, 0.0000000000000000000 ) ) ;
#176 = EDGE_CURVE ( 'NONE', #89, #299, #83, .T. ) ;
#177 = DIRECTION ( 'NONE',  ( 1.000000000000000000, 0.0000000000000000000, 0.0000000000000000000 ) ) ;
#178 = ORIENTED_EDGE ( 'NONE', *, *, #93, .T. ) ;
#179 = DIRECTION ( 'NONE',  ( 0.0000000000000000000, 0.0000000000000000000, -1.000000000000000000 ) ) ;
#180 = DIRECTION ( 'NONE',  ( 0.0000000000000000000, 0.0000000000000000000, -1.000000000000000000 ) ) ;
#181 = DATE_TIME_ROLE ( 'creation_date' ) ;
#182 = VECTOR ( 'NONE', #163, 1000.000000000000100 ) ;
#183 = PERSON ( 'UNSPECIFIED', 'UNSPECIFIED', 'UNSPECIFIED', ('UNSPECIFIED'), ('UNSPECIFIED'), ('UNSPECIFIED') ) ;
#184 = ORIENTED_EDGE ( 'NONE', *, *, #267, .F. ) ;
#185 = VERTEX_POINT ( 'NONE', #229 ) ;
#186 = DIRECTION ( 'NONE',  ( 0.0000000000000000000, 0.0000000000000000000, 1.000000000000000000 ) ) ;
#187 = AXIS2_PLACEMENT_3D ( 'NONE', #230, #58, #36 ) ;
#188 = ORIENTED_EDGE ( 'NONE', *, *, #3, .T. ) ;
#189 = EDGE_CURVE ( 'NONE', #215, #300, #190, .T. ) ;
#190 = LINE ( 'NONE', #28, #182 ) ;
#191 = DIRECTION ( 'NONE',  ( 0.0000000000000000000, 0.0000000000000000000, -1.000000000000000000 ) ) ;
#192 = ORIENTED_EDGE ( 'NONE', *, *, #18, .T. ) ;
#193 = DIRECTION ( 'NONE',  ( -1.000000000000000000, -0.0000000000000000000, -0.0000000000000000000 ) ) ;
#194 = CIRCLE ( 'NONE', #291, 12.69999999999999900 ) ;
#195 = AXIS2_PLACEMENT_3D ( 'NONE', #233, #245, #243 ) ;
#196 = DIRECTION ( 'NONE',  ( 0.0000000000000000000, 0.0000000000000000000, 1.000000000000000000 ) ) ;
#197 = ORIENTED_EDGE ( 'NONE', *, *, #176, .F. ) ;
#198 = DATE_AND_TIME ( #202, #209 ) ;
#199 = ORIENTED_EDGE ( 'NONE', *, *, #18, .F. ) ;
#200 = DIRECTION ( 'NONE',  ( -1.000000000000000000, -0.0000000000000000000, -0.0000000000000000000 ) ) ;
#201 = CARTESIAN_POINT ( 'NONE',  ( -1.600000000000000100, 0.0000000000000000000, 0.0000000000000000000 ) ) ;
#202 = CALENDAR_DATE ( 2015, 29, 5 ) ;
#203 = APPROVAL_PERSON_ORGANIZATION ( #96, #77, #67 ) ;
#204 = CARTESIAN_POINT ( 'NONE',  ( -1.600000000000000100, 0.0000000000000000000, 0.0000000000000000000 ) ) ;
#205 = PERSON_AND_ORGANIZATION ( #183, #170 ) ;
#206 = VERTEX_POINT ( 'NONE', #168 ) ;
#207 = DIRECTION ( 'NONE',  ( -1.000000000000000000, -0.0000000000000000000, -0.0000000000000000000 ) ) ;
#208 = APPROVAL_DATE_TIME ( #158, #77 ) ;
#209 = LOCAL_TIME ( 10, 21, 55.00000000000000000, #114 ) ;
#210 = ORIENTED_EDGE ( 'NONE', *, *, #52, .T. ) ;
#211 = CARTESIAN_POINT ( 'NONE',  ( -1.349999999999999900, 0.0000000000000000000, 0.0000000000000000000 ) ) ;
#212 = AXIS2_PLACEMENT_3D ( 'NONE', #241, #103, #4 ) ;
#213 = ORIENTED_EDGE ( 'NONE', *, *, #136, .T. ) ;
#214 = AXIS2_PLACEMENT_3D ( 'NONE', #76, #220, #191 ) ;
#215 = VERTEX_POINT ( 'NONE', #64 ) ;
#216 = VECTOR ( 'NONE', #122, 1000.000000000000000 ) ;
#217 = CIRCLE ( 'NONE', #244, 12.45479909191820600 ) ;
#218 = ORIENTED_EDGE ( 'NONE', *, *, #43, .T. ) ;
#219 = APPLICATION_CONTEXT ( 'configuration controlled 3d designs of mechanical parts and assemblies' ) ;
#220 = DIRECTION ( 'NONE',  ( 1.000000000000000000, 0.0000000000000000000, 0.0000000000000000000 ) ) ;
#221 = MECHANICAL_CONTEXT ( 'NONE', #219, 'mechanical' ) ;
#222 = AXIS2_PLACEMENT_3D ( 'NONE', #153, #22, #97 ) ;
#223 = CIRCLE ( 'NONE', #212, 69.00000000000000000 ) ;
#224 = EDGE_CURVE ( 'NONE', #300, #160, #128, .T. ) ;
#225 = ORIENTED_EDGE ( 'NONE', *, *, #140, .T. ) ;
#226 = AXIS2_PLACEMENT_3D ( 'NONE', #204, #54, #246 ) ;
#227 = CARTESIAN_POINT ( 'NONE',  ( -1.600000000000000100, 0.0000000000000000000, -12.44999999999999600 ) ) ;
#228 = DIRECTION ( 'NONE',  ( 0.0000000000000000000, 0.0000000000000000000, -1.000000000000000000 ) ) ;
#229 = CARTESIAN_POINT ( 'NONE',  ( 0.4458797225402114100, 1.525272984194098600E-015, -12.45479909191819900 ) ) ;
#230 = CARTESIAN_POINT ( 'NONE',  ( 0.1499999999965417900, 0.0000000000000000000, 0.0000000000000000000 ) ) ;
#231 = ORIENTED_EDGE ( 'NONE', *, *, #45, .T. ) ;
#232 = DIRECTION ( 'NONE',  ( 1.000000000000000000, 0.0000000000000000000, 0.0000000000000000000 ) ) ;
#233 = CARTESIAN_POINT ( 'NONE',  ( 0.0000000000000000000, 0.0000000000000000000, 0.0000000000000000000 ) ) ;
#234 = PRODUCT_DEFINITION_FORMATION_WITH_SPECIFIED_SOURCE ( 'ANY', '', #69, .NOT_KNOWN. ) ;
#235 = CARTESIAN_POINT ( 'NONE',  ( 0.1499999999965417900, 0.0000000000000000000, 0.0000000000000000000 ) ) ;
#236 = DIRECTION ( 'NONE',  ( -1.000000000000000000, -0.0000000000000000000, -0.0000000000000000000 ) ) ;
#237 = PRODUCT_DEFINITION_SHAPE ( 'NONE', 'NONE',  #297 ) ;
#238 = AXIS2_PLACEMENT_3D ( 'NONE', #8, #85, #180 ) ;
#239 = CARTESIAN_POINT ( 'NONE',  ( -1.600000000000000100, 0.0000000000000000000, 0.0000000000000000000 ) ) ;
#240 = EDGE_LOOP ( 'NONE', ( #199, #165, #247 ) ) ;
#241 = CARTESIAN_POINT ( 'NONE',  ( -67.39990749815949300, -1.383647415966155600E-017, 0.1129833856528678100 ) ) ;
#242 = LOCAL_TIME ( 10, 21, 55.00000000000000000, #24 ) ;
#243 = DIRECTION ( 'NONE',  ( 1.000000000000000000, 0.0000000000000000000, 0.0000000000000000000 ) ) ;
#244 = AXIS2_PLACEMENT_3D ( 'NONE', #294, #177, #149 ) ;
#245 = DIRECTION ( 'NONE',  ( 0.0000000000000000000, 0.0000000000000000000, 1.000000000000000000 ) ) ;
#246 = DIRECTION ( 'NONE',  ( 0.0000000000000000000, 0.0000000000000000000, -1.000000000000000000 ) ) ;
#247 = ORIENTED_EDGE ( 'NONE', *, *, #34, .T. ) ;
#248 = CARTESIAN_POINT ( 'NONE',  ( 0.1499999999965417900, 0.0000000000000000000, 12.69999999999999900 ) ) ;
#249 = APPROVAL ( #74, 'UNSPECIFIED' ) ;
#250 = ORIENTED_EDGE ( 'NONE', *, *, #3, .F. ) ;
#251 = DIRECTION ( 'NONE',  ( 1.000000000000000000, 0.0000000000000000000, 0.0000000000000000000 ) ) ;
#252 = CC_DESIGN_PERSON_AND_ORGANIZATION_ASSIGNMENT ( #150, #99, ( #297 ) ) ;
#253 = DIRECTION ( 'NONE',  ( 0.0000000000000000000, 0.0000000000000000000, 1.000000000000000000 ) ) ;
#254 = APPROVAL_ROLE ( '' ) ;
#255 = EDGE_CURVE ( 'NONE', #160, #206, #194, .T. ) ;
#256 = UNCERTAINTY_MEASURE_WITH_UNIT (LENGTH_MEASURE( 1.000000000000000100E-005 ), #258, 'distance_accuracy_value', 'NONE');
#257 = ORIENTED_EDGE ( 'NONE', *, *, #136, .F. ) ;
#258 =( LENGTH_UNIT ( ) NAMED_UNIT ( * ) SI_UNIT ( .MILLI., .METRE. ) );
#259 = APPROVAL_PERSON_ORGANIZATION ( #275, #284, #56 ) ;
#260 = EDGE_CURVE ( 'NONE', #16, #206, #5, .T. ) ;
#261 = CALENDAR_DATE ( 2015, 29, 5 ) ;
#262 = DIRECTION ( 'NONE',  ( -1.000000000000000000, -0.0000000000000000000, -0.0000000000000000000 ) ) ;
#263 = ORIENTED_EDGE ( 'NONE', *, *, #45, .F. ) ;
#264 = APPROVAL_DATE_TIME ( #141, #249 ) ;
#265 = ADVANCED_FACE ( 'NONE', ( #91 ), #143, .T. ) ;
#266 = ORIENTED_EDGE ( 'NONE', *, *, #267, .T. ) ;
#267 = EDGE_CURVE ( 'NONE', #206, #160, #138, .T. ) ;
#268 = PERSON_AND_ORGANIZATION ( #183, #170 ) ;
#269 = CARTESIAN_POINT ( 'NONE',  ( 0.1499999999965417900, 0.0000000000000000000, 0.0000000000000000000 ) ) ;
#270 = ADVANCED_FACE ( 'NONE', ( #66 ), #148, .T. ) ;
#271 = CARTESIAN_POINT ( 'NONE',  ( -1.600000000000000100, 1.524685264938454300E-015, 12.44999999999999600 ) ) ;
#272 = CC_DESIGN_PERSON_AND_ORGANIZATION_ASSIGNMENT ( #35, #124, ( #69 ) ) ;
#273 = CIRCLE ( 'NONE', #164, 12.45479909191820600 ) ;
#274 = APPROVAL_STATUS ( 'not_yet_approved' ) ;
#275 = PERSON_AND_ORGANIZATION ( #183, #170 ) ;
#276 = ORIENTED_EDGE ( 'NONE', *, *, #93, .F. ) ;
#277 = CARTESIAN_POINT ( 'NONE',  ( -1.349999999999999900, 0.0000000000000000000, 12.69999999999999900 ) ) ;
#278 = PRODUCT_RELATED_PRODUCT_CATEGORY ( 'detail', '', ( #69 ) ) ;
#279 = CARTESIAN_POINT ( 'NONE',  ( 0.1499999999965417900, 1.555301434917138400E-015, -12.69999999999999900 ) ) ;
#280 = CARTESIAN_POINT ( 'NONE',  ( -1.600000000000000100, 0.0000000000000000000, 12.69999999999999900 ) ) ;
#281 = CALENDAR_DATE ( 2015, 29, 5 ) ;
#282 = ORIENTED_EDGE ( 'NONE', *, *, #189, .F. ) ;
#283 = PERSON_AND_ORGANIZATION_ROLE ( 'classification_officer' ) ;
#284 = APPROVAL ( #274, 'UNSPECIFIED' ) ;
#285 = PERSON_AND_ORGANIZATION ( #183, #170 ) ;
#286 = AXIS2_PLACEMENT_3D ( 'NONE', #172, #127, #120 ) ;
#287 = CIRCLE ( 'NONE', #100, 12.69999999999999900 ) ;
#288 = CARTESIAN_POINT ( 'NONE',  ( -1.600000000000000100, 1.539993349927796300E-015, 12.44999999999999600 ) ) ;
#289 = ADVANCED_FACE ( 'NONE', ( #134 ), #9, .F. ) ;
#290 = PERSON_AND_ORGANIZATION ( #183, #170 ) ;
#291 = AXIS2_PLACEMENT_3D ( 'NONE', #39, #33, #132 ) ;
#292 = ADVANCED_FACE ( 'NONE', ( #60 ), #133, .T. ) ;
#293 = CC_DESIGN_APPROVAL ( #284, ( #234 ) ) ;
#294 = CARTESIAN_POINT ( 'NONE',  ( 0.4458797225402044700, 0.0000000000000000000, 0.0000000000000000000 ) ) ;
#295 =( NAMED_UNIT ( * ) SI_UNIT ( $, .STERADIAN. ) SOLID_ANGLE_UNIT ( ) );
#296 = CC_DESIGN_SECURITY_CLASSIFICATION ( #174, ( #234 ) ) ;
#297 = PRODUCT_DEFINITION ( 'UNKNOWN', '', #234, #10 ) ;
#298 = AXIS2_PLACEMENT_3D ( 'NONE', #269, #262, #81 ) ;
#299 = VERTEX_POINT ( 'NONE', #227 ) ;
#300 = VERTEX_POINT ( 'NONE', #248 ) ;
#301 = AXIS2_PLACEMENT_3D ( 'NONE', #239, #173, #228 ) ;
ENDSEC;
END-ISO-10303-21;
