ISO-10303-21;
HEADER;
FILE_DESCRIPTION (( 'STEP AP203' ),
    '1' );
FILE_NAME ('Web Model 37688_38991.step',
    '2018-10-18T19:42:18',
    ( '' ),
    ( '' ),
    'SwSTEP 2.0',
    'SolidWorks 2016',
    '' );
FILE_SCHEMA (( 'CONFIG_CONTROL_DESIGN' ));
ENDSEC;

DATA;
#1 = ORIENTED_EDGE ( 'NONE', *, *, #140, .F. ) ;
#2 = APPROVAL_PERSON_ORGANIZATION ( #72, #122, #26 ) ;
#3 = CIRCLE ( 'NONE', #41, 6.349999999999999600 ) ;
#4 = CARTESIAN_POINT ( 'NONE',  ( 6.349999999999999600, 7.776507174585692200E-016, 3.174999999999999800 ) ) ;
#5 = ORIENTED_EDGE ( 'NONE', *, *, #93, .F. ) ;
#6 = CARTESIAN_POINT ( 'NONE',  ( 0.0000000000000000000, 0.0000000000000000000, 3.174999999999999800 ) ) ;
#7 = CC_DESIGN_PERSON_AND_ORGANIZATION_ASSIGNMENT ( #69, #117, ( #47 ) ) ;
#8 = APPROVAL_STATUS ( 'not_yet_approved' ) ;
#9 = CARTESIAN_POINT ( 'NONE',  ( 0.0000000000000000000, 0.0000000000000000000, 3.174999999999999800 ) ) ;
#10 = APPROVAL_STATUS ( 'not_yet_approved' ) ;
#11 = COORDINATED_UNIVERSAL_TIME_OFFSET ( 5, 0, .BEHIND. ) ;
#12 = ORIENTED_EDGE ( 'NONE', *, *, #64, .F. ) ;
#13 = PRODUCT ( 'Web Model 37688_38991', 'Web Model 37688_38991', '', ( #111 ) ) ;
#14 = DESIGN_CONTEXT ( 'detailed design', #49, 'design' ) ;
#15 = ORIENTED_EDGE ( 'NONE', *, *, #86, .F. ) ;
#16 = MANIFOLD_SOLID_BREP ( 'Boss-Extrude1', #154 ) ;
#17 = CC_DESIGN_SECURITY_CLASSIFICATION ( #47, ( #135 ) ) ;
#18 = COORDINATED_UNIVERSAL_TIME_OFFSET ( 5, 0, .BEHIND. ) ;
#19 = CC_DESIGN_APPROVAL ( #122, ( #135 ) ) ;
#20 = CC_DESIGN_DATE_AND_TIME_ASSIGNMENT ( #54, #50, ( #47 ) ) ;
#21 = CALENDAR_DATE ( 2018, 18, 10 ) ;
#22 = FACE_OUTER_BOUND ( 'NONE', #43, .T. ) ;
#23 = DIRECTION ( 'NONE',  ( 1.000000000000000000, 0.0000000000000000000, 0.0000000000000000000 ) ) ;
#24 = PERSON_AND_ORGANIZATION ( #77, #131 ) ;
#25 = AXIS2_PLACEMENT_3D ( 'NONE', #28, #129, #167 ) ;
#26 = APPROVAL_ROLE ( '' ) ;
#27 = DIRECTION ( 'NONE',  ( 0.0000000000000000000, 0.0000000000000000000, 1.000000000000000000 ) ) ;
#28 = CARTESIAN_POINT ( 'NONE',  ( 0.0000000000000000000, 0.0000000000000000000, 0.0000000000000000000 ) ) ;
#29 = COORDINATED_UNIVERSAL_TIME_OFFSET ( 5, 0, .BEHIND. ) ;
#30 = DIRECTION ( 'NONE',  ( 1.000000000000000000, 0.0000000000000000000, 0.0000000000000000000 ) ) ;
#31 = PRODUCT_RELATED_PRODUCT_CATEGORY ( 'detail', '', ( #13 ) ) ;
#32 = AXIS2_PLACEMENT_3D ( 'NONE', #35, #137, #157 ) ;
#33 = CC_DESIGN_PERSON_AND_ORGANIZATION_ASSIGNMENT ( #24, #96, ( #13 ) ) ;
#34 = FACE_OUTER_BOUND ( 'NONE', #164, .T. ) ;
#35 = CARTESIAN_POINT ( 'NONE',  ( 0.0000000000000000000, 0.0000000000000000000, 3.174999999999999800 ) ) ;
#36 = CARTESIAN_POINT ( 'NONE',  ( 6.349999999999999600, 7.776507174585692200E-016, 3.174999999999999800 ) ) ;
#37 = DIRECTION ( 'NONE',  ( 0.0000000000000000000, 0.0000000000000000000, 1.000000000000000000 ) ) ;
#38 = SECURITY_CLASSIFICATION_LEVEL ( 'unclassified' ) ;
#39 = DIRECTION ( 'NONE',  ( 0.0000000000000000000, 0.0000000000000000000, 1.000000000000000000 ) ) ;
#40 = DIRECTION ( 'NONE',  ( 1.000000000000000000, 0.0000000000000000000, 0.0000000000000000000 ) ) ;
#41 = AXIS2_PLACEMENT_3D ( 'NONE', #158, #37, #23 ) ;
#42 = CIRCLE ( 'NONE', #168, 6.349999999999999600 ) ;
#43 = EDGE_LOOP ( 'NONE', ( #15, #132, #108, #143 ) ) ;
#44 = PLANE ( 'NONE',  #75 ) ;
#45 = VERTEX_POINT ( 'NONE', #109 ) ;
#46 = CARTESIAN_POINT ( 'NONE',  ( -6.349999999999999600, 0.0000000000000000000, 3.174999999999999800 ) ) ;
#47 = SECURITY_CLASSIFICATION ( '', '', #38 ) ;
#48 = PERSON_AND_ORGANIZATION_ROLE ( 'creator' ) ;
#49 = APPLICATION_CONTEXT ( 'configuration controlled 3d designs of mechanical parts and assemblies' ) ;
#50 = DATE_TIME_ROLE ( 'classification_date' ) ;
#51 = PERSON_AND_ORGANIZATION ( #77, #131 ) ;
#52 = SHAPE_DEFINITION_REPRESENTATION ( #124, #58 ) ;
#53 = APPROVAL_ROLE ( '' ) ;
#54 = DATE_AND_TIME ( #67, #76 ) ;
#55 = CC_DESIGN_PERSON_AND_ORGANIZATION_ASSIGNMENT ( #112, #144, ( #172 ) ) ;
#56 = COORDINATED_UNIVERSAL_TIME_OFFSET ( 5, 0, .BEHIND. ) ;
#57 = FACE_OUTER_BOUND ( 'NONE', #161, .T. ) ;
#58 = ADVANCED_BREP_SHAPE_REPRESENTATION ( 'Web Model 37688_38991', ( #16, #25 ), #114 ) ;
#59 = DIRECTION ( 'NONE',  ( -0.0000000000000000000, -0.0000000000000000000, -1.000000000000000000 ) ) ;
#60 = DIRECTION ( 'NONE',  ( 0.0000000000000000000, 0.0000000000000000000, 1.000000000000000000 ) ) ;
#61 = APPLICATION_PROTOCOL_DEFINITION ( 'international standard', 'config_control_design', 1994, #49 ) ;
#62 = CARTESIAN_POINT ( 'NONE',  ( 0.0000000000000000000, 0.0000000000000000000, 3.174999999999999800 ) ) ;
#63 = DIRECTION ( 'NONE',  ( 0.0000000000000000000, 0.0000000000000000000, 1.000000000000000000 ) ) ;
#64 = EDGE_CURVE ( 'NONE', #80, #147, #68, .T. ) ;
#65 = DATE_TIME_ROLE ( 'creation_date' ) ;
#66 = VECTOR ( 'NONE', #59, 1000.000000000000000 ) ;
#67 = CALENDAR_DATE ( 2018, 18, 10 ) ;
#68 = LINE ( 'NONE', #36, #66 ) ;
#69 = PERSON_AND_ORGANIZATION ( #77, #131 ) ;
#70 = ADVANCED_FACE ( 'NONE', ( #82 ), #44, .F. ) ;
#71 = APPROVAL ( #10, 'UNSPECIFIED' ) ;
#72 = PERSON_AND_ORGANIZATION ( #77, #131 ) ;
#73 = ADVANCED_FACE ( 'NONE', ( #34 ), #116, .T. ) ;
#74 =( NAMED_UNIT ( * ) PLANE_ANGLE_UNIT ( ) SI_UNIT ( $, .RADIAN. ) );
#75 = AXIS2_PLACEMENT_3D ( 'NONE', #123, #156, #95 ) ;
#76 = LOCAL_TIME ( 15, 42, 18.00000000000000000, #120 ) ;
#77 = PERSON ( 'UNSPECIFIED', 'UNSPECIFIED', 'UNSPECIFIED', ('UNSPECIFIED'), ('UNSPECIFIED'), ('UNSPECIFIED') ) ;
#78 = DATE_AND_TIME ( #115, #150 ) ;
#79 = PERSON_AND_ORGANIZATION ( #77, #131 ) ;
#80 = VERTEX_POINT ( 'NONE', #4 ) ;
#81 = CALENDAR_DATE ( 2018, 18, 10 ) ;
#82 = FACE_OUTER_BOUND ( 'NONE', #118, .T. ) ;
#83 = AXIS2_PLACEMENT_3D ( 'NONE', #136, #110, #170 ) ;
#84 = LOCAL_TIME ( 15, 42, 18.00000000000000000, #11 ) ;
#85 = ADVANCED_FACE ( 'NONE', ( #22 ), #125, .T. ) ;
#86 = EDGE_CURVE ( 'NONE', #80, #151, #155, .T. ) ;
#87 = CARTESIAN_POINT ( 'NONE',  ( 6.349999999999999600, 7.776507174585692200E-016, -3.174999999999999800 ) ) ;
#88 = APPLICATION_PROTOCOL_DEFINITION ( 'international standard', 'config_control_design', 1994, #97 ) ;
#89 = CC_DESIGN_APPROVAL ( #71, ( #47 ) ) ;
#90 =( NAMED_UNIT ( * ) SI_UNIT ( $, .STERADIAN. ) SOLID_ANGLE_UNIT ( ) );
#91 = APPROVAL_DATE_TIME ( #163, #122 ) ;
#92 = CIRCLE ( 'NONE', #133, 6.349999999999999600 ) ;
#93 = EDGE_CURVE ( 'NONE', #45, #147, #3, .T. ) ;
#94 = VECTOR ( 'NONE', #139, 1000.000000000000000 ) ;
#95 = DIRECTION ( 'NONE',  ( 1.000000000000000000, 0.0000000000000000000, -0.0000000000000000000 ) ) ;
#96 = PERSON_AND_ORGANIZATION_ROLE ( 'design_owner' ) ;
#97 = APPLICATION_CONTEXT ( 'configuration controlled 3d designs of mechanical parts and assemblies' ) ;
#98 = CC_DESIGN_PERSON_AND_ORGANIZATION_ASSIGNMENT ( #160, #48, ( #135 ) ) ;
#99 = ORIENTED_EDGE ( 'NONE', *, *, #93, .T. ) ;
#100 = APPROVAL_ROLE ( '' ) ;
#101 = LOCAL_TIME ( 15, 42, 18.00000000000000000, #56 ) ;
#102 = ORIENTED_EDGE ( 'NONE', *, *, #145, .T. ) ;
#103 = LOCAL_TIME ( 15, 42, 18.00000000000000000, #29 ) ;
#104 = ORIENTED_EDGE ( 'NONE', *, *, #121, .F. ) ;
#105 = UNCERTAINTY_MEASURE_WITH_UNIT (LENGTH_MEASURE( 1.000000000000000100E-005 ), #141, 'distance_accuracy_value', 'NONE');
#106 = APPROVAL_DATE_TIME ( #78, #71 ) ;
#107 = APPROVAL ( #8, 'UNSPECIFIED' ) ;
#108 = ORIENTED_EDGE ( 'NONE', *, *, #140, .T. ) ;
#109 = CARTESIAN_POINT ( 'NONE',  ( -6.349999999999999600, 0.0000000000000000000, -3.174999999999999800 ) ) ;
#110 = DIRECTION ( 'NONE',  ( -0.0000000000000000000, -0.0000000000000000000, -1.000000000000000000 ) ) ;
#111 = MECHANICAL_CONTEXT ( 'NONE', #97, 'mechanical' ) ;
#112 = PERSON_AND_ORGANIZATION ( #77, #131 ) ;
#113 = DIRECTION ( 'NONE',  ( 1.000000000000000000, 0.0000000000000000000, 0.0000000000000000000 ) ) ;
#114 =( GEOMETRIC_REPRESENTATION_CONTEXT ( 3 ) GLOBAL_UNCERTAINTY_ASSIGNED_CONTEXT ( ( #105 ) ) GLOBAL_UNIT_ASSIGNED_CONTEXT ( ( #141, #74, #90 ) ) REPRESENTATION_CONTEXT ( 'NONE', 'WORKASPACE' ) );
#115 = CALENDAR_DATE ( 2018, 18, 10 ) ;
#116 = CYLINDRICAL_SURFACE ( 'NONE', #32, 6.349999999999999600 ) ;
#117 = PERSON_AND_ORGANIZATION_ROLE ( 'classification_officer' ) ;
#118 = EDGE_LOOP ( 'NONE', ( #5, #1 ) ) ;
#119 = APPROVAL_DATE_TIME ( #148, #107 ) ;
#120 = COORDINATED_UNIVERSAL_TIME_OFFSET ( 5, 0, .BEHIND. ) ;
#121 = EDGE_CURVE ( 'NONE', #151, #80, #92, .T. ) ;
#122 = APPROVAL ( #159, 'UNSPECIFIED' ) ;
#123 = CARTESIAN_POINT ( 'NONE',  ( 0.0000000000000000000, 0.0000000000000000000, -3.174999999999999800 ) ) ;
#124 = PRODUCT_DEFINITION_SHAPE ( 'NONE', 'NONE',  #172 ) ;
#125 = CYLINDRICAL_SURFACE ( 'NONE', #83, 6.349999999999999600 ) ;
#126 = ORIENTED_EDGE ( 'NONE', *, *, #121, .T. ) ;
#127 = CARTESIAN_POINT ( 'NONE',  ( -6.349999999999999600, 0.0000000000000000000, 3.174999999999999800 ) ) ;
#128 = CC_DESIGN_APPROVAL ( #107, ( #172 ) ) ;
#129 = DIRECTION ( 'NONE',  ( 0.0000000000000000000, 0.0000000000000000000, 1.000000000000000000 ) ) ;
#130 = PLANE ( 'NONE',  #152 ) ;
#131 = ORGANIZATION ( 'UNSPECIFIED', 'UNSPECIFIED', '' ) ;
#132 = ORIENTED_EDGE ( 'NONE', *, *, #64, .T. ) ;
#133 = AXIS2_PLACEMENT_3D ( 'NONE', #62, #60, #113 ) ;
#134 = CC_DESIGN_DATE_AND_TIME_ASSIGNMENT ( #165, #65, ( #172 ) ) ;
#135 = PRODUCT_DEFINITION_FORMATION_WITH_SPECIFIED_SOURCE ( 'ANY', '', #13, .NOT_KNOWN. ) ;
#136 = CARTESIAN_POINT ( 'NONE',  ( 0.0000000000000000000, 0.0000000000000000000, 3.174999999999999800 ) ) ;
#137 = DIRECTION ( 'NONE',  ( -0.0000000000000000000, -0.0000000000000000000, -1.000000000000000000 ) ) ;
#138 = ORIENTED_EDGE ( 'NONE', *, *, #86, .T. ) ;
#139 = DIRECTION ( 'NONE',  ( -0.0000000000000000000, -0.0000000000000000000, -1.000000000000000000 ) ) ;
#140 = EDGE_CURVE ( 'NONE', #147, #45, #42, .T. ) ;
#141 =( LENGTH_UNIT ( ) NAMED_UNIT ( * ) SI_UNIT ( .MILLI., .METRE. ) );
#142 = PERSON_AND_ORGANIZATION_ROLE ( 'design_supplier' ) ;
#143 = ORIENTED_EDGE ( 'NONE', *, *, #145, .F. ) ;
#144 = PERSON_AND_ORGANIZATION_ROLE ( 'creator' ) ;
#145 = EDGE_CURVE ( 'NONE', #151, #45, #175, .T. ) ;
#146 = APPROVAL_PERSON_ORGANIZATION ( #51, #71, #53 ) ;
#147 = VERTEX_POINT ( 'NONE', #87 ) ;
#148 = DATE_AND_TIME ( #21, #101 ) ;
#149 = CC_DESIGN_PERSON_AND_ORGANIZATION_ASSIGNMENT ( #79, #142, ( #135 ) ) ;
#150 = LOCAL_TIME ( 15, 42, 18.00000000000000000, #18 ) ;
#151 = VERTEX_POINT ( 'NONE', #127 ) ;
#152 = AXIS2_PLACEMENT_3D ( 'NONE', #9, #39, #171 ) ;
#153 = APPROVAL_PERSON_ORGANIZATION ( #162, #107, #100 ) ;
#154 = CLOSED_SHELL ( 'NONE', ( #85, #73, #166, #70 ) ) ;
#155 = CIRCLE ( 'NONE', #173, 6.349999999999999600 ) ;
#156 = DIRECTION ( 'NONE',  ( 0.0000000000000000000, 0.0000000000000000000, 1.000000000000000000 ) ) ;
#157 = DIRECTION ( 'NONE',  ( -1.000000000000000000, 0.0000000000000000000, 0.0000000000000000000 ) ) ;
#158 = CARTESIAN_POINT ( 'NONE',  ( 0.0000000000000000000, 0.0000000000000000000, -3.174999999999999800 ) ) ;
#159 = APPROVAL_STATUS ( 'not_yet_approved' ) ;
#160 = PERSON_AND_ORGANIZATION ( #77, #131 ) ;
#161 = EDGE_LOOP ( 'NONE', ( #126, #138 ) ) ;
#162 = PERSON_AND_ORGANIZATION ( #77, #131 ) ;
#163 = DATE_AND_TIME ( #81, #103 ) ;
#164 = EDGE_LOOP ( 'NONE', ( #12, #104, #102, #99 ) ) ;
#165 = DATE_AND_TIME ( #174, #84 ) ;
#166 = ADVANCED_FACE ( 'NONE', ( #57 ), #130, .T. ) ;
#167 = DIRECTION ( 'NONE',  ( 1.000000000000000000, 0.0000000000000000000, 0.0000000000000000000 ) ) ;
#168 = AXIS2_PLACEMENT_3D ( 'NONE', #169, #27, #40 ) ;
#169 = CARTESIAN_POINT ( 'NONE',  ( 0.0000000000000000000, 0.0000000000000000000, -3.174999999999999800 ) ) ;
#170 = DIRECTION ( 'NONE',  ( -1.000000000000000000, 0.0000000000000000000, 0.0000000000000000000 ) ) ;
#171 = DIRECTION ( 'NONE',  ( 1.000000000000000000, 0.0000000000000000000, -0.0000000000000000000 ) ) ;
#172 = PRODUCT_DEFINITION ( 'UNKNOWN', '', #135, #14 ) ;
#173 = AXIS2_PLACEMENT_3D ( 'NONE', #6, #63, #30 ) ;
#174 = CALENDAR_DATE ( 2018, 18, 10 ) ;
#175 = LINE ( 'NONE', #46, #94 ) ;
ENDSEC;
END-ISO-10303-21;
