ISO-10303-21;
HEADER;
FILE_DESCRIPTION (( 'STEP AP203' ),
    '1' );
FILE_NAME ('20098-E0W.STEP',
    '2015-07-10T15:25:04',
    ( 'Admin' ),
    ( '' ),
    'SwSTEP 2.0',
    'SolidWorks 2014',
    '' );
FILE_SCHEMA (( 'CONFIG_CONTROL_DESIGN' ));
ENDSEC;

DATA;
#1 = CARTESIAN_POINT ( 'NONE',  ( 0.0000000000000000000, -1.392907506177693800E-016, 0.6879731435999811900 ) ) ;
#2 = APPLICATION_PROTOCOL_DEFINITION ( 'international standard', 'config_control_design', 1994, #241 ) ;
#3 = DIRECTION ( 'NONE',  ( 0.0000000000000000000, 1.000000000000000000, 3.646467768498515200E-016 ) ) ;
#4 = ORIENTED_EDGE ( 'NONE', *, *, #57, .T. ) ;
#5 = CARTESIAN_POINT ( 'NONE',  ( 0.0000000000000000000, 2.767536883257343200E-014, -227.1739999999999800 ) ) ;
#6 = CIRCLE ( 'NONE', #82, 12.55857864376268800 ) ;
#7 = AXIS2_PLACEMENT_3D ( 'NONE', #183, #62, #169 ) ;
#8 = CC_DESIGN_APPROVAL ( #268, ( #233 ) ) ;
#9 = EDGE_CURVE ( 'NONE', #215, #110, #253, .T. ) ;
#10 = ORIENTED_EDGE ( 'NONE', *, *, #41, .T. ) ;
#11 = DIRECTION ( 'NONE',  ( 0.0000000000000000000, 1.000000000000000000, 3.073328992872296400E-016 ) ) ;
#12 = DIRECTION ( 'NONE',  ( -0.0000000000000000000, 3.061515884555943100E-016, -1.000000000000000000 ) ) ;
#13 = APPROVAL_PERSON_ORGANIZATION ( #156, #101, #293 ) ;
#14 = ORIENTED_EDGE ( 'NONE', *, *, #41, .F. ) ;
#15 = CIRCLE ( 'NONE', #297, 12.69999999999999900 ) ;
#16 = ADVANCED_FACE ( 'NONE', ( #36 ), #290, .T. ) ;
#17 = ORIENTED_EDGE ( 'NONE', *, *, #248, .F. ) ;
#18 = DIRECTION ( 'NONE',  ( 8.659560562354887300E-017, 0.7071067811865435800, 0.7071067811865515700 ) ) ;
#19 = AXIS2_PLACEMENT_3D ( 'NONE', #259, #187, #288 ) ;
#20 = ORGANIZATION ( 'UNSPECIFIED', 'UNSPECIFIED', '' ) ;
#21 = CARTESIAN_POINT ( 'NONE',  ( 0.0000000000000000000, 4.310614365454768600E-016, -1.175000000000000000 ) ) ;
#22 = APPROVAL_STATUS ( 'not_yet_approved' ) ;
#23 = DIRECTION ( 'NONE',  ( 0.0000000000000000000, 0.0000000000000000000, 1.000000000000000000 ) ) ;
#24 = AXIS2_PLACEMENT_3D ( 'NONE', #283, #70, #32 ) ;
#25 = VECTOR ( 'NONE', #246, 1000.000000000000000 ) ;
#26 = APPROVAL_DATE_TIME ( #296, #77 ) ;
#27 = DATE_TIME_ROLE ( 'classification_date' ) ;
#28 = ORIENTED_EDGE ( 'NONE', *, *, #206, .F. ) ;
#29 = DIRECTION ( 'NONE',  ( -0.0000000000000000000, 3.061515884555943100E-016, -1.000000000000000000 ) ) ;
#30 = EDGE_CURVE ( 'NONE', #191, #163, #6, .T. ) ;
#31 = DIRECTION ( 'NONE',  ( -0.0000000000000000000, 3.061515884555943100E-016, -1.000000000000000000 ) ) ;
#32 = DIRECTION ( 'NONE',  ( 0.0000000000000000000, 1.000000000000000000, 3.107937555406664600E-016 ) ) ;
#33 = AXIS2_PLACEMENT_3D ( 'NONE', #124, #126, #201 ) ;
#34 = DIRECTION ( 'NONE',  ( -0.0000000000000000000, 3.061515884555943100E-016, -1.000000000000000000 ) ) ;
#35 = DIRECTION ( 'NONE',  ( 0.0000000000000000000, 1.000000000000000000, 3.073328992872296400E-016 ) ) ;
#36 = FACE_OUTER_BOUND ( 'NONE', #292, .T. ) ;
#37 = CARTESIAN_POINT ( 'NONE',  ( 0.0000000000000000000, -1.392907506177693800E-016, 0.6879731435999811900 ) ) ;
#38 = CARTESIAN_POINT ( 'NONE',  ( 0.0000000000000000000, 2.767536883257343200E-014, -227.1739999999999800 ) ) ;
#39 = DIRECTION ( 'NONE',  ( 0.0000000000000000000, 0.0000000000000000000, 1.000000000000000000 ) ) ;
#40 = ADVANCED_FACE ( 'NONE', ( #114 ), #107, .T. ) ;
#41 = EDGE_CURVE ( 'NONE', #212, #191, #273, .T. ) ;
#42 = CARTESIAN_POINT ( 'NONE',  ( 0.0000000000000000000, 4.310614365454780400E-016, -1.175000000000004000 ) ) ;
#43 = DIRECTION ( 'NONE',  ( 0.0000000000000000000, -0.7071067811865440200, 0.7071067811865511300 ) ) ;
#44 = FACE_OUTER_BOUND ( 'NONE', #276, .T. ) ;
#45 = FACE_OUTER_BOUND ( 'NONE', #244, .T. ) ;
#46 = APPROVAL_DATE_TIME ( #262, #101 ) ;
#47 = ORIENTED_EDGE ( 'NONE', *, *, #208, .F. ) ;
#48 = PERSON ( 'UNSPECIFIED', 'UNSPECIFIED', 'UNSPECIFIED', ('UNSPECIFIED'), ('UNSPECIFIED'), ('UNSPECIFIED') ) ;
#49 = ORIENTED_EDGE ( 'NONE', *, *, #258, .T. ) ;
#50 = CARTESIAN_POINT ( 'NONE',  ( 0.0000000000000000000, -12.55857864376269000, -1.175000000000007800 ) ) ;
#51 = FACE_OUTER_BOUND ( 'NONE', #176, .T. ) ;
#52 = LINE ( 'NONE', #209, #165 ) ;
#53 = APPROVAL_DATE_TIME ( #96, #268 ) ;
#54 = DIRECTION ( 'NONE',  ( -0.0000000000000000000, 3.061515884555943100E-016, -1.000000000000000000 ) ) ;
#55 = CC_DESIGN_PERSON_AND_ORGANIZATION_ASSIGNMENT ( #300, #100, ( #233 ) ) ;
#56 = ORIENTED_EDGE ( 'NONE', *, *, #238, .F. ) ;
#57 = EDGE_CURVE ( 'NONE', #163, #250, #105, .T. ) ;
#58 = ORIENTED_EDGE ( 'NONE', *, *, #30, .F. ) ;
#59 = CC_DESIGN_PERSON_AND_ORGANIZATION_ASSIGNMENT ( #189, #102, ( #199 ) ) ;
#60 = PERSON_AND_ORGANIZATION_ROLE ( 'design_supplier' ) ;
#61 = EDGE_LOOP ( 'NONE', ( #86, #237, #74, #196 ) ) ;
#62 = DIRECTION ( 'NONE',  ( 0.0000000000000000000, -3.061515884555943100E-016, 1.000000000000000000 ) ) ;
#63 = LOCAL_TIME ( 11, 25, 4.000000000000000000, #301 ) ;
#64 = LINE ( 'NONE', #129, #204 ) ;
#65 = CIRCLE ( 'NONE', #274, 12.69999999999999800 ) ;
#66 = AXIS2_PLACEMENT_3D ( 'NONE', #42, #158, #151 ) ;
#67 = CC_DESIGN_SECURITY_CLASSIFICATION ( #233, ( #199 ) ) ;
#68 = LINE ( 'NONE', #50, #240 ) ;
#69 = CARTESIAN_POINT ( 'NONE',  ( 0.0000000000000000000, 12.69999999999999800, -1.033578643762690600 ) ) ;
#70 = DIRECTION ( 'NONE',  ( -0.0000000000000000000, 3.061515884555943100E-016, -1.000000000000000000 ) ) ;
#71 = ORIENTED_EDGE ( 'NONE', *, *, #275, .T. ) ;
#72 = VERTEX_POINT ( 'NONE', #205 ) ;
#73 = VECTOR ( 'NONE', #31, 1000.000000000000000 ) ;
#74 = ORIENTED_EDGE ( 'NONE', *, *, #9, .T. ) ;
#75 = DIRECTION ( 'NONE',  ( 0.0000000000000000000, 1.000000000000000000, 3.073328992872296900E-016 ) ) ;
#76 = ORIENTED_EDGE ( 'NONE', *, *, #98, .F. ) ;
#77 = APPROVAL ( #22, 'UNSPECIFIED' ) ;
#78 = DIRECTION ( 'NONE',  ( -1.000000000000000000, 0.0000000000000000000, 0.0000000000000000000 ) ) ;
#79 = AXIS2_PLACEMENT_3D ( 'NONE', #146, #121, #3 ) ;
#80 = APPLICATION_CONTEXT ( 'configuration controlled 3d designs of mechanical parts and assemblies' ) ;
#81 = DIRECTION ( 'NONE',  ( 0.0000000000000000000, 1.000000000000000000, 3.073328992872296400E-016 ) ) ;
#82 = AXIS2_PLACEMENT_3D ( 'NONE', #251, #280, #287 ) ;
#83 = CARTESIAN_POINT ( 'NONE',  ( 0.0000000000000000000, 12.55857864376261000, 0.8293944998372935200 ) ) ;
#84 = CC_DESIGN_DATE_AND_TIME_ASSIGNMENT ( #235, #145, ( #108 ) ) ;
#85 = PERSON_AND_ORGANIZATION ( #48, #20 ) ;
#86 = ORIENTED_EDGE ( 'NONE', *, *, #275, .F. ) ;
#87 = CARTESIAN_POINT ( 'NONE',  ( 1.546641874354783400E-015, 12.55857864376269000, -1.175000000000000000 ) ) ;
#88 =( NAMED_UNIT ( * ) SI_UNIT ( $, .STERADIAN. ) SOLID_ANGLE_UNIT ( ) );
#89 = LOCAL_TIME ( 11, 25, 4.000000000000000000, #194 ) ;
#90 = CC_DESIGN_PERSON_AND_ORGANIZATION_ASSIGNMENT ( #85, #180, ( #108 ) ) ;
#91 = CALENDAR_DATE ( 2015, 10, 7 ) ;
#92 = LOCAL_TIME ( 11, 25, 4.000000000000000000, #257 ) ;
#93 = ORIENTED_EDGE ( 'NONE', *, *, #136, .T. ) ;
#94 = DIRECTION ( 'NONE',  ( 0.0000000000000000000, 1.000000000000000000, 3.061515884555943100E-016 ) ) ;
#95 = CYLINDRICAL_SURFACE ( 'NONE', #229, 12.69999999999999900 ) ;
#96 = DATE_AND_TIME ( #298, #135 ) ;
#97 = EDGE_LOOP ( 'NONE', ( #142, #210, #140, #56 ) ) ;
#98 = EDGE_CURVE ( 'NONE', #212, #163, #132, .T. ) ;
#99 = DIRECTION ( 'NONE',  ( 0.0000000000000000000, 1.000000000000000000, 3.021605956645368700E-016 ) ) ;
#100 = PERSON_AND_ORGANIZATION_ROLE ( 'classification_officer' ) ;
#101 = APPROVAL ( #219, 'UNSPECIFIED' ) ;
#102 = PERSON_AND_ORGANIZATION_ROLE ( 'creator' ) ;
#103 = AXIS2_PLACEMENT_3D ( 'NONE', #113, #174, #94 ) ;
#104 = AXIS2_PLACEMENT_3D ( 'NONE', #284, #29, #35 ) ;
#105 = LINE ( 'NONE', #200, #25 ) ;
#106 = CARTESIAN_POINT ( 'NONE',  ( 1.537982313792419000E-015, -12.55857864376265100, 0.8293944998372898600 ) ) ;
#107 = CONICAL_SURFACE ( 'NONE', #299, 12.69999999999999900, 0.7853981633974590500 ) ;
#108 = PRODUCT_DEFINITION ( 'UNKNOWN', '', #199, #291 ) ;
#109 = DIRECTION ( 'NONE',  ( -0.0000000000000000000, 3.061515884555943100E-016, -1.000000000000000000 ) ) ;
#110 = VERTEX_POINT ( 'NONE', #69 ) ;
#111 = APPROVAL_PERSON_ORGANIZATION ( #118, #77, #211 ) ;
#112 = ADVANCED_FACE ( 'NONE', ( #216 ), #190, .T. ) ;
#113 = CARTESIAN_POINT ( 'NONE',  ( 0.0000000000000000000, 4.310614365454774500E-016, -1.175000000000002000 ) ) ;
#114 = FACE_OUTER_BOUND ( 'NONE', #171, .T. ) ;
#115 = DIRECTION ( 'NONE',  ( 1.000000000000000000, 0.0000000000000000000, -0.0000000000000000000 ) ) ;
#116 = EDGE_CURVE ( 'NONE', #72, #256, #286, .T. ) ;
#117 = EDGE_CURVE ( 'NONE', #221, #110, #65, .T. ) ;
#118 = PERSON_AND_ORGANIZATION ( #48, #20 ) ;
#119 = ORIENTED_EDGE ( 'NONE', *, *, #98, .T. ) ;
#120 = APPLICATION_PROTOCOL_DEFINITION ( 'international standard', 'config_control_design', 1994, #80 ) ;
#121 = DIRECTION ( 'NONE',  ( 1.000000000000000000, 0.0000000000000000000, -0.0000000000000000000 ) ) ;
#122 = CARTESIAN_POINT ( 'NONE',  ( 1.555301434917138200E-015, -12.69999999999999800, -1.033578643762698400 ) ) ;
#123 = CARTESIAN_POINT ( 'NONE',  ( 0.0000000000000000000, 3.877650636918812500E-016, -1.033578643762694400 ) ) ;
#124 = CARTESIAN_POINT ( 'NONE',  ( 0.0000000000000000000, 4.310614365454768600E-016, -1.175000000000000000 ) ) ;
#125 = CC_DESIGN_APPROVAL ( #101, ( #108 ) ) ;
#126 = DIRECTION ( 'NONE',  ( -0.0000000000000000000, 3.061515884555943100E-016, -1.000000000000000000 ) ) ;
#127 = APPROVAL_STATUS ( 'not_yet_approved' ) ;
#128 = PRODUCT_RELATED_PRODUCT_CATEGORY ( 'detail', '', ( #197 ) ) ;
#129 = CARTESIAN_POINT ( 'NONE',  ( 0.0000000000000000000, 12.69999999999999900, 0.6879731435999851800 ) ) ;
#130 = CLOSED_SHELL ( 'NONE', ( #112, #157, #138, #255, #228, #16, #40, #265, #148 ) ) ;
#131 = LOCAL_TIME ( 11, 25, 4.000000000000000000, #239 ) ;
#132 = CIRCLE ( 'NONE', #289, 228.3489999999999900 ) ;
#133 = VECTOR ( 'NONE', #54, 1000.000000000000000 ) ;
#134 = PERSON_AND_ORGANIZATION_ROLE ( 'design_owner' ) ;
#135 = LOCAL_TIME ( 11, 25, 4.000000000000000000, #230 ) ;
#136 = EDGE_CURVE ( 'NONE', #256, #72, #160, .T. ) ;
#137 = DIRECTION ( 'NONE',  ( 0.0000000000000000000, 1.000000000000000000, 3.073328992872296900E-016 ) ) ;
#138 = ADVANCED_FACE ( 'NONE', ( #44 ), #188, .T. ) ;
#139 = ORIENTED_EDGE ( 'NONE', *, *, #57, .F. ) ;
#140 = ORIENTED_EDGE ( 'NONE', *, *, #248, .T. ) ;
#141 = PLANE ( 'NONE',  #103 ) ;
#142 = ORIENTED_EDGE ( 'NONE', *, *, #136, .F. ) ;
#143 =( LENGTH_UNIT ( ) NAMED_UNIT ( * ) SI_UNIT ( .MILLI., .METRE. ) );
#144 = EDGE_LOOP ( 'NONE', ( #223, #71, #17, #203 ) ) ;
#145 = DATE_TIME_ROLE ( 'creation_date' ) ;
#146 = CARTESIAN_POINT ( 'NONE',  ( 0.0000000000000000000, 2.767536883257343200E-014, -227.1739999999999800 ) ) ;
#147 = CARTESIAN_POINT ( 'NONE',  ( 0.0000000000000000000, 12.69999999999999900, 0.6879731435999851800 ) ) ;
#148 = ADVANCED_FACE ( 'NONE', ( #51 ), #186, .T. ) ;
#149 = AXIS2_PLACEMENT_3D ( 'NONE', #150, #39, #198 ) ;
#150 = CARTESIAN_POINT ( 'NONE',  ( 0.0000000000000000000, 0.0000000000000000000, 0.0000000000000000000 ) ) ;
#151 = DIRECTION ( 'NONE',  ( 0.0000000000000000000, 1.000000000000000000, 3.107937555406664600E-016 ) ) ;
#152 = ORIENTED_EDGE ( 'NONE', *, *, #202, .F. ) ;
#153 = CARTESIAN_POINT ( 'NONE',  ( 0.0000000000000000000, 4.310614365454780400E-016, -1.175000000000004000 ) ) ;
#154 = CARTESIAN_POINT ( 'NONE',  ( 0.0000000000000000000, -1.825871234713658200E-016, 0.8293944998372896300 ) ) ;
#155 = EDGE_LOOP ( 'NONE', ( #261, #93 ) ) ;
#156 = PERSON_AND_ORGANIZATION ( #48, #20 ) ;
#157 = ADVANCED_FACE ( 'NONE', ( #184 ), #252, .T. ) ;
#158 = DIRECTION ( 'NONE',  ( -0.0000000000000000000, 3.061515884555943100E-016, -1.000000000000000000 ) ) ;
#159 = CC_DESIGN_PERSON_AND_ORGANIZATION_ASSIGNMENT ( #282, #134, ( #197 ) ) ;
#160 = CIRCLE ( 'NONE', #24, 12.55857864376269000 ) ;
#161 = ORIENTED_EDGE ( 'NONE', *, *, #249, .T. ) ;
#162 = DIRECTION ( 'NONE',  ( 0.0000000000000000000, 0.7071067811865553400, -0.7071067811865396900 ) ) ;
#163 = VERTEX_POINT ( 'NONE', #106 ) ;
#164 = CIRCLE ( 'NONE', #19, 12.69999999999999900 ) ;
#165 = VECTOR ( 'NONE', #18, 999.9999999999998900 ) ;
#166 = CALENDAR_DATE ( 2015, 10, 7 ) ;
#167 = CARTESIAN_POINT ( 'NONE',  ( 0.0000000000000000000, 12.69999999999999900, -1.174999999999996000 ) ) ;
#168 = UNCERTAINTY_MEASURE_WITH_UNIT (LENGTH_MEASURE( 1.000000000000000100E-005 ), #143, 'distance_accuracy_value', 'NONE');
#169 = DIRECTION ( 'NONE',  ( 0.0000000000000000000, -1.000000000000000000, -3.107937555406664600E-016 ) ) ;
#170 = CC_DESIGN_APPROVAL ( #77, ( #199 ) ) ;
#171 = EDGE_LOOP ( 'NONE', ( #139, #49, #161, #47 ) ) ;
#172 = FACE_OUTER_BOUND ( 'NONE', #155, .T. ) ;
#173 = CARTESIAN_POINT ( 'NONE',  ( 0.0000000000000000000, 2.767536883257343200E-014, -227.1739999999999800 ) ) ;
#174 = DIRECTION ( 'NONE',  ( -0.0000000000000000000, 3.061515884555943100E-016, -1.000000000000000000 ) ) ;
#175 = MECHANICAL_CONTEXT ( 'NONE', #80, 'mechanical' ) ;
#176 = EDGE_LOOP ( 'NONE', ( #152, #234, #214, #182 ) ) ;
#177 = CIRCLE ( 'NONE', #272, 12.69999999999999800 ) ;
#178 = PERSON_AND_ORGANIZATION ( #48, #20 ) ;
#179 = CIRCLE ( 'NONE', #260, 12.55857864376268800 ) ;
#180 = PERSON_AND_ORGANIZATION_ROLE ( 'creator' ) ;
#181 = CC_DESIGN_DATE_AND_TIME_ASSIGNMENT ( #222, #27, ( #233 ) ) ;
#182 = ORIENTED_EDGE ( 'NONE', *, *, #117, .T. ) ;
#183 = CARTESIAN_POINT ( 'NONE',  ( 0.0000000000000000000, 4.310614365454780400E-016, -1.175000000000004000 ) ) ;
#184 = FACE_OUTER_BOUND ( 'NONE', #144, .T. ) ;
#185 = DIRECTION ( 'NONE',  ( -0.0000000000000000000, 3.061515884555943100E-016, -1.000000000000000000 ) ) ;
#186 = CONICAL_SURFACE ( 'NONE', #7, 12.55857864376269000, 0.7853981633974428400 ) ;
#187 = DIRECTION ( 'NONE',  ( -0.0000000000000000000, 3.061515884555943100E-016, -1.000000000000000000 ) ) ;
#188 = CONICAL_SURFACE ( 'NONE', #104, 12.69999999999999900, 0.7853981633974590500 ) ;
#189 = PERSON_AND_ORGANIZATION ( #48, #20 ) ;
#190 = CONICAL_SURFACE ( 'NONE', #232, 12.55857864376269000, 0.7853981633974428400 ) ;
#191 = VERTEX_POINT ( 'NONE', #83 ) ;
#192 = ORIENTED_EDGE ( 'NONE', *, *, #30, .T. ) ;
#193 = DIRECTION ( 'NONE',  ( 0.0000000000000000000, 1.000000000000000000, 3.073328992872296400E-016 ) ) ;
#194 = COORDINATED_UNIVERSAL_TIME_OFFSET ( 5, 0, .BEHIND. ) ;
#195 = FACE_OUTER_BOUND ( 'NONE', #61, .T. ) ;
#196 = ORIENTED_EDGE ( 'NONE', *, *, #117, .F. ) ;
#197 = PRODUCT ( '20098-E0W', '20098-E0W', '', ( #175 ) ) ;
#198 = DIRECTION ( 'NONE',  ( 1.000000000000000000, 0.0000000000000000000, 0.0000000000000000000 ) ) ;
#199 = PRODUCT_DEFINITION_FORMATION_WITH_SPECIFIED_SOURCE ( 'ANY', '', #197, .NOT_KNOWN. ) ;
#200 = CARTESIAN_POINT ( 'NONE',  ( 1.555301434917138400E-015, -12.69999999999999900, 0.6879731435999773000 ) ) ;
#201 = DIRECTION ( 'NONE',  ( 0.0000000000000000000, 1.000000000000000000, 3.073328992872296400E-016 ) ) ;
#202 = EDGE_CURVE ( 'NONE', #256, #110, #52, .T. ) ;
#203 = ORIENTED_EDGE ( 'NONE', *, *, #9, .F. ) ;
#204 = VECTOR ( 'NONE', #162, 1000.000000000000000 ) ;
#205 = CARTESIAN_POINT ( 'NONE',  ( 0.0000000000000000000, -12.55857864376269000, -1.175000000000007800 ) ) ;
#206 = EDGE_CURVE ( 'NONE', #215, #250, #164, .T. ) ;
#207 =( GEOMETRIC_REPRESENTATION_CONTEXT ( 3 ) GLOBAL_UNCERTAINTY_ASSIGNED_CONTEXT ( ( #168 ) ) GLOBAL_UNIT_ASSIGNED_CONTEXT ( ( #143, #294, #88 ) ) REPRESENTATION_CONTEXT ( 'NONE', 'WORKASPACE' ) );
#208 = EDGE_CURVE ( 'NONE', #250, #215, #15, .T. ) ;
#209 = CARTESIAN_POINT ( 'NONE',  ( 1.537982313792428700E-015, 12.55857864376269000, -1.175000000000000000 ) ) ;
#210 = ORIENTED_EDGE ( 'NONE', *, *, #202, .T. ) ;
#211 = APPROVAL_ROLE ( '' ) ;
#212 = VERTEX_POINT ( 'NONE', #281 ) ;
#213 = SECURITY_CLASSIFICATION_LEVEL ( 'unclassified' ) ;
#214 = ORIENTED_EDGE ( 'NONE', *, *, #238, .T. ) ;
#215 = VERTEX_POINT ( 'NONE', #147 ) ;
#216 = FACE_OUTER_BOUND ( 'NONE', #97, .T. ) ;
#217 = APPROVAL_ROLE ( '' ) ;
#218 = CALENDAR_DATE ( 2015, 10, 7 ) ;
#219 = APPROVAL_STATUS ( 'not_yet_approved' ) ;
#220 = DIRECTION ( 'NONE',  ( -0.0000000000000000000, 3.061515884555943100E-016, -1.000000000000000000 ) ) ;
#221 = VERTEX_POINT ( 'NONE', #122 ) ;
#222 = DATE_AND_TIME ( #247, #131 ) ;
#223 = ORIENTED_EDGE ( 'NONE', *, *, #206, .T. ) ;
#224 = SHAPE_DEFINITION_REPRESENTATION ( #263, #277 ) ;
#225 = CC_DESIGN_PERSON_AND_ORGANIZATION_ASSIGNMENT ( #242, #60, ( #199 ) ) ;
#226 = APPROVAL_PERSON_ORGANIZATION ( #178, #268, #217 ) ;
#227 = CARTESIAN_POINT ( 'NONE',  ( 0.0000000000000000000, 3.877650636918812500E-016, -1.033578643762694400 ) ) ;
#228 = ADVANCED_FACE ( 'NONE', ( #172 ), #141, .T. ) ;
#229 = AXIS2_PLACEMENT_3D ( 'NONE', #21, #12, #81 ) ;
#230 = COORDINATED_UNIVERSAL_TIME_OFFSET ( 5, 0, .BEHIND. ) ;
#231 = DIRECTION ( 'NONE',  ( -1.224646799147353200E-016, 1.000000000000000000, 0.0000000000000000000 ) ) ;
#232 = AXIS2_PLACEMENT_3D ( 'NONE', #153, #254, #266 ) ;
#233 = SECURITY_CLASSIFICATION ( '', '', #213 ) ;
#234 = ORIENTED_EDGE ( 'NONE', *, *, #116, .F. ) ;
#235 = DATE_AND_TIME ( #91, #89 ) ;
#236 = AXIS2_PLACEMENT_3D ( 'NONE', #38, #78, #23 ) ;
#237 = ORIENTED_EDGE ( 'NONE', *, *, #208, .T. ) ;
#238 = EDGE_CURVE ( 'NONE', #72, #221, #68, .T. ) ;
#239 = COORDINATED_UNIVERSAL_TIME_OFFSET ( 5, 0, .BEHIND. ) ;
#240 = VECTOR ( 'NONE', #43, 999.9999999999998900 ) ;
#241 = APPLICATION_CONTEXT ( 'configuration controlled 3d designs of mechanical parts and assemblies' ) ;
#242 = PERSON_AND_ORGANIZATION ( #48, #20 ) ;
#243 = CARTESIAN_POINT ( 'NONE',  ( 1.555301434917138400E-015, -12.69999999999999900, 0.6879731435999773000 ) ) ;
#244 = EDGE_LOOP ( 'NONE', ( #14, #119, #58 ) ) ;
#245 = CARTESIAN_POINT ( 'NONE',  ( 1.555301434917138400E-015, -12.69999999999999900, -1.175000000000004000 ) ) ;
#246 = DIRECTION ( 'NONE',  ( 8.659560562355026500E-017, -0.7071067811865549000, -0.7071067811865401300 ) ) ;
#247 = CALENDAR_DATE ( 2015, 10, 7 ) ;
#248 = EDGE_CURVE ( 'NONE', #110, #221, #177, .T. ) ;
#249 = EDGE_CURVE ( 'NONE', #191, #215, #64, .T. ) ;
#250 = VERTEX_POINT ( 'NONE', #243 ) ;
#251 = CARTESIAN_POINT ( 'NONE',  ( 0.0000000000000000000, -1.825871234713658200E-016, 0.8293944998372896300 ) ) ;
#252 = CYLINDRICAL_SURFACE ( 'NONE', #33, 12.69999999999999900 ) ;
#253 = LINE ( 'NONE', #167, #73 ) ;
#254 = DIRECTION ( 'NONE',  ( 0.0000000000000000000, -3.061515884555943100E-016, 1.000000000000000000 ) ) ;
#255 = ADVANCED_FACE ( 'NONE', ( #45 ), #267, .T. ) ;
#256 = VERTEX_POINT ( 'NONE', #87 ) ;
#257 = COORDINATED_UNIVERSAL_TIME_OFFSET ( 5, 0, .BEHIND. ) ;
#258 = EDGE_CURVE ( 'NONE', #163, #191, #179, .T. ) ;
#259 = CARTESIAN_POINT ( 'NONE',  ( 0.0000000000000000000, -1.392907506177693800E-016, 0.6879731435999811900 ) ) ;
#260 = AXIS2_PLACEMENT_3D ( 'NONE', #154, #271, #99 ) ;
#261 = ORIENTED_EDGE ( 'NONE', *, *, #116, .T. ) ;
#262 = DATE_AND_TIME ( #218, #92 ) ;
#263 = PRODUCT_DEFINITION_SHAPE ( 'NONE', 'NONE',  #108 ) ;
#264 = ORIENTED_EDGE ( 'NONE', *, *, #249, .F. ) ;
#265 = ADVANCED_FACE ( 'NONE', ( #195 ), #95, .T. ) ;
#266 = DIRECTION ( 'NONE',  ( 0.0000000000000000000, -1.000000000000000000, -3.107937555406664600E-016 ) ) ;
#267 = SPHERICAL_SURFACE ( 'NONE', #285, 228.3489999999999900 ) ;
#268 = APPROVAL ( #127, 'UNSPECIFIED' ) ;
#269 = LINE ( 'NONE', #245, #133 ) ;
#270 = DIRECTION ( 'NONE',  ( 1.000000000000000000, 1.224646799147353200E-016, 3.749275628560213600E-032 ) ) ;
#271 = DIRECTION ( 'NONE',  ( -0.0000000000000000000, 3.061515884555943100E-016, -1.000000000000000000 ) ) ;
#272 = AXIS2_PLACEMENT_3D ( 'NONE', #123, #109, #75 ) ;
#273 = CIRCLE ( 'NONE', #236, 228.3489999999999900 ) ;
#274 = AXIS2_PLACEMENT_3D ( 'NONE', #227, #220, #137 ) ;
#275 = EDGE_CURVE ( 'NONE', #250, #221, #269, .T. ) ;
#276 = EDGE_LOOP ( 'NONE', ( #192, #4, #28, #264 ) ) ;
#277 = ADVANCED_BREP_SHAPE_REPRESENTATION ( '20098-E0W', ( #278, #149 ), #207 ) ;
#278 = MANIFOLD_SOLID_BREP ( '20098-001-1-solid1', #130 ) ;
#279 = ORIENTED_EDGE ( 'NONE', *, *, #258, .F. ) ;
#280 = DIRECTION ( 'NONE',  ( -0.0000000000000000000, 3.061515884555943100E-016, -1.000000000000000000 ) ) ;
#281 = CARTESIAN_POINT ( 'NONE',  ( 0.0000000000000000000, -2.825169664274812600E-014, 1.175000000000009400 ) ) ;
#282 = PERSON_AND_ORGANIZATION ( #48, #20 ) ;
#283 = CARTESIAN_POINT ( 'NONE',  ( 0.0000000000000000000, 4.310614365454780400E-016, -1.175000000000004000 ) ) ;
#284 = CARTESIAN_POINT ( 'NONE',  ( 0.0000000000000000000, -1.392907506177693800E-016, 0.6879731435999811900 ) ) ;
#285 = AXIS2_PLACEMENT_3D ( 'NONE', #5, #115, #295 ) ;
#286 = CIRCLE ( 'NONE', #66, 12.55857864376269000 ) ;
#287 = DIRECTION ( 'NONE',  ( 0.0000000000000000000, 1.000000000000000000, 3.021605956645368700E-016 ) ) ;
#288 = DIRECTION ( 'NONE',  ( 0.0000000000000000000, 1.000000000000000000, 3.073328992872296400E-016 ) ) ;
#289 = AXIS2_PLACEMENT_3D ( 'NONE', #173, #270, #231 ) ;
#290 = SPHERICAL_SURFACE ( 'NONE', #79, 228.3489999999999900 ) ;
#291 = DESIGN_CONTEXT ( 'detailed design', #241, 'design' ) ;
#292 = EDGE_LOOP ( 'NONE', ( #76, #10, #279 ) ) ;
#293 = APPROVAL_ROLE ( '' ) ;
#294 =( NAMED_UNIT ( * ) PLANE_ANGLE_UNIT ( ) SI_UNIT ( $, .RADIAN. ) );
#295 = DIRECTION ( 'NONE',  ( 0.0000000000000000000, 1.000000000000000000, 3.646467768498515200E-016 ) ) ;
#296 = DATE_AND_TIME ( #166, #63 ) ;
#297 = AXIS2_PLACEMENT_3D ( 'NONE', #1, #34, #11 ) ;
#298 = CALENDAR_DATE ( 2015, 10, 7 ) ;
#299 = AXIS2_PLACEMENT_3D ( 'NONE', #37, #185, #193 ) ;
#300 = PERSON_AND_ORGANIZATION ( #48, #20 ) ;
#301 = COORDINATED_UNIVERSAL_TIME_OFFSET ( 5, 0, .BEHIND. ) ;
ENDSEC;
END-ISO-10303-21;
