ISO-10303-21;
HEADER;
FILE_DESCRIPTION (( 'STEP AP203' ),
    '1' );
FILE_NAME ('Web Model 64397MX_64397.step',
    '2017-10-30T13:02:11',
    ( '' ),
    ( '' ),
    'SwSTEP 2.0',
    'SolidWorks 2016',
    '' );
FILE_SCHEMA (( 'CONFIG_CONTROL_DESIGN' ));
ENDSEC;

DATA;
#1 =( GEOMETRIC_REPRESENTATION_CONTEXT ( 3 ) GLOBAL_UNCERTAINTY_ASSIGNED_CONTEXT ( ( #107 ) ) GLOBAL_UNIT_ASSIGNED_CONTEXT ( ( #61, #177, #43 ) ) REPRESENTATION_CONTEXT ( 'NONE', 'WORKASPACE' ) );
#2 = LINE ( 'NONE', #206, #99 ) ;
#3 = PLANE ( 'NONE',  #171 ) ;
#4 = EDGE_CURVE ( 'NONE', #212, #23, #120, .T. ) ;
#5 = DIRECTION ( 'NONE',  ( 0.0000000000000000000, 0.0000000000000000000, 1.000000000000000000 ) ) ;
#6 = ORIENTED_EDGE ( 'NONE', *, *, #4, .T. ) ;
#7 = VECTOR ( 'NONE', #108, 1000.000000000000000 ) ;
#8 = APPROVAL_ROLE ( '' ) ;
#9 = EDGE_CURVE ( 'NONE', #83, #172, #161, .T. ) ;
#10 = DIRECTION ( 'NONE',  ( 1.000000000000000000, 0.0000000000000000000, -0.0000000000000000000 ) ) ;
#11 = PERSON_AND_ORGANIZATION ( #30, #227 ) ;
#12 = FACE_OUTER_BOUND ( 'NONE', #153, .T. ) ;
#13 = CARTESIAN_POINT ( 'NONE',  ( 6.349999999999998800, -6.349999999999998800, 3.000000000000000000 ) ) ;
#14 = CARTESIAN_POINT ( 'NONE',  ( -6.350000000000000500, -6.350000000000000500, -3.000000000000000000 ) ) ;
#15 = DIRECTION ( 'NONE',  ( 1.000000000000000000, 0.0000000000000000000, 0.0000000000000000000 ) ) ;
#16 = CARTESIAN_POINT ( 'NONE',  ( 6.349999999999998800, 6.350000000000000500, 3.000000000000000000 ) ) ;
#17 = EDGE_LOOP ( 'NONE', ( #225, #6, #44, #70 ) ) ;
#18 = CARTESIAN_POINT ( 'NONE',  ( 6.349999999999998800, -6.349999999999998800, -3.000000000000000000 ) ) ;
#19 = CARTESIAN_POINT ( 'NONE',  ( -6.350000000000000500, 6.349999999999998800, -3.000000000000000000 ) ) ;
#20 = ORIENTED_EDGE ( 'NONE', *, *, #45, .T. ) ;
#21 = PERSON_AND_ORGANIZATION_ROLE ( 'creator' ) ;
#22 = CC_DESIGN_PERSON_AND_ORGANIZATION_ASSIGNMENT ( #209, #96, ( #149 ) ) ;
#23 = VERTEX_POINT ( 'NONE', #168 ) ;
#24 = AXIS2_PLACEMENT_3D ( 'NONE', #86, #166, #127 ) ;
#25 = PERSON_AND_ORGANIZATION ( #30, #227 ) ;
#26 = FACE_OUTER_BOUND ( 'NONE', #46, .T. ) ;
#27 = PERSON_AND_ORGANIZATION ( #30, #227 ) ;
#28 = ORIENTED_EDGE ( 'NONE', *, *, #145, .F. ) ;
#29 = ADVANCED_FACE ( 'NONE', ( #167 ), #219, .F. ) ;
#30 = PERSON ( 'UNSPECIFIED', 'UNSPECIFIED', 'UNSPECIFIED', ('UNSPECIFIED'), ('UNSPECIFIED'), ('UNSPECIFIED') ) ;
#31 = CARTESIAN_POINT ( 'NONE',  ( -6.350000000000000500, 6.349999999999998800, 3.000000000000000000 ) ) ;
#32 = ORIENTED_EDGE ( 'NONE', *, *, #87, .T. ) ;
#33 = CARTESIAN_POINT ( 'NONE',  ( 0.0000000000000000000, 0.0000000000000000000, 3.000000000000000000 ) ) ;
#34 = EDGE_CURVE ( 'NONE', #141, #63, #211, .T. ) ;
#35 = CARTESIAN_POINT ( 'NONE',  ( -6.350000000000000500, -6.350000000000000500, 3.000000000000000000 ) ) ;
#36 = DIRECTION ( 'NONE',  ( 1.000000000000000000, 1.365923996832131600E-016, -0.0000000000000000000 ) ) ;
#37 = DIRECTION ( 'NONE',  ( 0.0000000000000000000, 0.0000000000000000000, -1.000000000000000000 ) ) ;
#38 = VECTOR ( 'NONE', #58, 1000.000000000000000 ) ;
#39 = AXIS2_PLACEMENT_3D ( 'NONE', #235, #51, #102 ) ;
#40 = APPLICATION_PROTOCOL_DEFINITION ( 'international standard', 'config_control_design', 1994, #115 ) ;
#41 = CC_DESIGN_APPROVAL ( #143, ( #152 ) ) ;
#42 = APPROVAL_PERSON_ORGANIZATION ( #224, #143, #8 ) ;
#43 =( NAMED_UNIT ( * ) SI_UNIT ( $, .STERADIAN. ) SOLID_ANGLE_UNIT ( ) );
#44 = ORIENTED_EDGE ( 'NONE', *, *, #119, .T. ) ;
#45 = EDGE_CURVE ( 'NONE', #23, #94, #66, .T. ) ;
#46 = EDGE_LOOP ( 'NONE', ( #28, #208, #164, #132 ) ) ;
#47 = VECTOR ( 'NONE', #56, 1000.000000000000000 ) ;
#48 = AXIS2_PLACEMENT_3D ( 'NONE', #110, #139, #178 ) ;
#49 = ADVANCED_FACE ( 'NONE', ( #12 ), #106, .F. ) ;
#50 = CARTESIAN_POINT ( 'NONE',  ( 6.349999999999998800, 6.350000000000000500, -3.000000000000000000 ) ) ;
#51 = DIRECTION ( 'NONE',  ( 1.365923996832131600E-016, -1.000000000000000000, 0.0000000000000000000 ) ) ;
#52 = EDGE_LOOP ( 'NONE', ( #184, #147, #159, #20 ) ) ;
#53 = CC_DESIGN_PERSON_AND_ORGANIZATION_ASSIGNMENT ( #11, #62, ( #80 ) ) ;
#54 = ADVANCED_FACE ( 'NONE', ( #26 ), #146, .F. ) ;
#55 = CARTESIAN_POINT ( 'NONE',  ( -6.350000000000000500, -6.350000000000000500, 3.000000000000000000 ) ) ;
#56 = DIRECTION ( 'NONE',  ( -0.0000000000000000000, -1.000000000000000000, -0.0000000000000000000 ) ) ;
#57 = LINE ( 'NONE', #18, #156 ) ;
#58 = DIRECTION ( 'NONE',  ( -0.0000000000000000000, -0.0000000000000000000, -1.000000000000000000 ) ) ;
#59 = ORIENTED_EDGE ( 'NONE', *, *, #9, .T. ) ;
#60 = CARTESIAN_POINT ( 'NONE',  ( 6.349999999999998800, -6.349999999999998800, 3.000000000000000000 ) ) ;
#61 =( LENGTH_UNIT ( ) NAMED_UNIT ( * ) SI_UNIT ( .MILLI., .METRE. ) );
#62 = PERSON_AND_ORGANIZATION_ROLE ( 'design_supplier' ) ;
#63 = VERTEX_POINT ( 'NONE', #129 ) ;
#64 = PERSON_AND_ORGANIZATION ( #30, #227 ) ;
#65 = LINE ( 'NONE', #192, #38 ) ;
#66 = LINE ( 'NONE', #13, #128 ) ;
#67 = CC_DESIGN_PERSON_AND_ORGANIZATION_ASSIGNMENT ( #182, #229, ( #197 ) ) ;
#68 = EDGE_LOOP ( 'NONE', ( #32, #230, #217, #191 ) ) ;
#69 = VECTOR ( 'NONE', #144, 1000.000000000000000 ) ;
#70 = ORIENTED_EDGE ( 'NONE', *, *, #131, .T. ) ;
#71 = COORDINATED_UNIVERSAL_TIME_OFFSET ( 5, 0, .BEHIND. ) ;
#72 = DIRECTION ( 'NONE',  ( 0.0000000000000000000, -0.0000000000000000000, 1.000000000000000000 ) ) ;
#73 = LOCAL_TIME ( 9, 2, 11.00000000000000000, #122 ) ;
#74 = PLANE ( 'NONE',  #113 ) ;
#75 = VERTEX_POINT ( 'NONE', #14 ) ;
#76 = APPROVAL_PERSON_ORGANIZATION ( #64, #158, #228 ) ;
#77 = DATE_TIME_ROLE ( 'classification_date' ) ;
#78 = APPROVAL_DATE_TIME ( #185, #158 ) ;
#79 = MECHANICAL_CONTEXT ( 'NONE', #115, 'mechanical' ) ;
#80 = PRODUCT_DEFINITION_FORMATION_WITH_SPECIFIED_SOURCE ( 'ANY', '', #197, .NOT_KNOWN. ) ;
#81 = APPLICATION_CONTEXT ( 'configuration controlled 3d designs of mechanical parts and assemblies' ) ;
#82 = ORIENTED_EDGE ( 'NONE', *, *, #4, .F. ) ;
#83 = VERTEX_POINT ( 'NONE', #31 ) ;
#84 = DIRECTION ( 'NONE',  ( -1.000000000000000000, -1.365923996832131600E-016, 0.0000000000000000000 ) ) ;
#85 = DIRECTION ( 'NONE',  ( -0.0000000000000000000, -0.0000000000000000000, -1.000000000000000000 ) ) ;
#86 = CARTESIAN_POINT ( 'NONE',  ( 6.349999999999998800, -6.349999999999998800, 3.000000000000000000 ) ) ;
#87 = EDGE_CURVE ( 'NONE', #63, #172, #174, .T. ) ;
#88 = CARTESIAN_POINT ( 'NONE',  ( 0.0000000000000000000, 0.0000000000000000000, -3.000000000000000000 ) ) ;
#89 = AXIS2_PLACEMENT_3D ( 'NONE', #60, #196, #5 ) ;
#90 = PRODUCT_RELATED_PRODUCT_CATEGORY ( 'detail', '', ( #197 ) ) ;
#91 = LOCAL_TIME ( 9, 2, 11.00000000000000000, #181 ) ;
#92 = DATE_TIME_ROLE ( 'creation_date' ) ;
#93 = APPROVAL_STATUS ( 'not_yet_approved' ) ;
#94 = VERTEX_POINT ( 'NONE', #237 ) ;
#95 = VECTOR ( 'NONE', #150, 1000.000000000000000 ) ;
#96 = PERSON_AND_ORGANIZATION_ROLE ( 'creator' ) ;
#97 = DESIGN_CONTEXT ( 'detailed design', #81, 'design' ) ;
#98 = LOCAL_TIME ( 9, 2, 11.00000000000000000, #71 ) ;
#99 = VECTOR ( 'NONE', #223, 1000.000000000000000 ) ;
#100 = ORIENTED_EDGE ( 'NONE', *, *, #45, .F. ) ;
#101 = ORIENTED_EDGE ( 'NONE', *, *, #145, .T. ) ;
#102 = DIRECTION ( 'NONE',  ( 1.000000000000000000, 1.365923996832131600E-016, 0.0000000000000000000 ) ) ;
#103 = VECTOR ( 'NONE', #84, 1000.000000000000000 ) ;
#104 = CARTESIAN_POINT ( 'NONE',  ( 6.349999999999998800, 6.350000000000000500, 3.000000000000000000 ) ) ;
#105 = VECTOR ( 'NONE', #222, 1000.000000000000000 ) ;
#106 = PLANE ( 'NONE',  #24 ) ;
#107 = UNCERTAINTY_MEASURE_WITH_UNIT (LENGTH_MEASURE( 1.000000000000000100E-005 ), #61, 'distance_accuracy_value', 'NONE');
#108 = DIRECTION ( 'NONE',  ( 0.0000000000000000000, 1.000000000000000000, 0.0000000000000000000 ) ) ;
#109 = CARTESIAN_POINT ( 'NONE',  ( 6.349999999999998800, 6.350000000000000500, 3.000000000000000000 ) ) ;
#110 = CARTESIAN_POINT ( 'NONE',  ( 0.0000000000000000000, 0.0000000000000000000, 0.0000000000000000000 ) ) ;
#111 = VECTOR ( 'NONE', #204, 1000.000000000000000 ) ;
#112 = CALENDAR_DATE ( 2017, 30, 10 ) ;
#113 = AXIS2_PLACEMENT_3D ( 'NONE', #35, #15, #37 ) ;
#114 = EDGE_CURVE ( 'NONE', #94, #63, #218, .T. ) ;
#115 = APPLICATION_CONTEXT ( 'configuration controlled 3d designs of mechanical parts and assemblies' ) ;
#116 = CC_DESIGN_DATE_AND_TIME_ASSIGNMENT ( #121, #92, ( #149 ) ) ;
#117 = PERSON_AND_ORGANIZATION_ROLE ( 'classification_officer' ) ;
#118 = ORIENTED_EDGE ( 'NONE', *, *, #210, .F. ) ;
#119 = EDGE_CURVE ( 'NONE', #23, #141, #162, .T. ) ;
#120 = LINE ( 'NONE', #188, #111 ) ;
#121 = DATE_AND_TIME ( #134, #91 ) ;
#122 = COORDINATED_UNIVERSAL_TIME_OFFSET ( 5, 0, .BEHIND. ) ;
#123 = ORIENTED_EDGE ( 'NONE', *, *, #199, .F. ) ;
#124 = ADVANCED_FACE ( 'NONE', ( #138 ), #74, .F. ) ;
#125 = ORIENTED_EDGE ( 'NONE', *, *, #136, .T. ) ;
#126 = COORDINATED_UNIVERSAL_TIME_OFFSET ( 5, 0, .BEHIND. ) ;
#127 = DIRECTION ( 'NONE',  ( -1.000000000000000000, -1.365923996832131600E-016, 0.0000000000000000000 ) ) ;
#128 = VECTOR ( 'NONE', #220, 1000.000000000000000 ) ;
#129 = CARTESIAN_POINT ( 'NONE',  ( 6.349999999999998800, 6.350000000000000500, -3.000000000000000000 ) ) ;
#130 = FACE_OUTER_BOUND ( 'NONE', #17, .T. ) ;
#131 = EDGE_CURVE ( 'NONE', #141, #83, #151, .T. ) ;
#132 = ORIENTED_EDGE ( 'NONE', *, *, #136, .F. ) ;
#133 = CC_DESIGN_PERSON_AND_ORGANIZATION_ASSIGNMENT ( #160, #21, ( #80 ) ) ;
#134 = CALENDAR_DATE ( 2017, 30, 10 ) ;
#135 = PRODUCT_DEFINITION_SHAPE ( 'NONE', 'NONE',  #149 ) ;
#136 = EDGE_CURVE ( 'NONE', #75, #94, #57, .T. ) ;
#137 = DATE_AND_TIME ( #112, #73 ) ;
#138 = FACE_OUTER_BOUND ( 'NONE', #215, .T. ) ;
#139 = DIRECTION ( 'NONE',  ( 0.0000000000000000000, 0.0000000000000000000, 1.000000000000000000 ) ) ;
#140 = PLANE ( 'NONE',  #89 ) ;
#141 = VERTEX_POINT ( 'NONE', #109 ) ;
#142 = MANIFOLD_SOLID_BREP ( 'Boss-Extrude1', #226 ) ;
#143 = APPROVAL ( #175, 'UNSPECIFIED' ) ;
#144 = DIRECTION ( 'NONE',  ( 0.0000000000000000000, 1.000000000000000000, 0.0000000000000000000 ) ) ;
#145 = EDGE_CURVE ( 'NONE', #172, #75, #2, .T. ) ;
#146 = PLANE ( 'NONE',  #207 ) ;
#147 = ORIENTED_EDGE ( 'NONE', *, *, #34, .F. ) ;
#148 = CARTESIAN_POINT ( 'NONE',  ( -6.350000000000000500, 6.349999999999998800, 3.000000000000000000 ) ) ;
#149 = PRODUCT_DEFINITION ( 'UNKNOWN', '', #80, #97 ) ;
#150 = DIRECTION ( 'NONE',  ( -1.000000000000000000, -1.365923996832131600E-016, 0.0000000000000000000 ) ) ;
#151 = LINE ( 'NONE', #16, #95 ) ;
#152 = SECURITY_CLASSIFICATION ( '', '', #157 ) ;
#153 = EDGE_LOOP ( 'NONE', ( #125, #100, #82, #200 ) ) ;
#154 = ADVANCED_FACE ( 'NONE', ( #130 ), #3, .T. ) ;
#155 = DATE_AND_TIME ( #234, #180 ) ;
#156 = VECTOR ( 'NONE', #36, 1000.000000000000000 ) ;
#157 = SECURITY_CLASSIFICATION_LEVEL ( 'unclassified' ) ;
#158 = APPROVAL ( #93, 'UNSPECIFIED' ) ;
#159 = ORIENTED_EDGE ( 'NONE', *, *, #119, .F. ) ;
#160 = PERSON_AND_ORGANIZATION ( #30, #227 ) ;
#161 = LINE ( 'NONE', #148, #221 ) ;
#162 = LINE ( 'NONE', #170, #7 ) ;
#163 = CC_DESIGN_DATE_AND_TIME_ASSIGNMENT ( #155, #77, ( #152 ) ) ;
#164 = ORIENTED_EDGE ( 'NONE', *, *, #114, .F. ) ;
#165 = CALENDAR_DATE ( 2017, 30, 10 ) ;
#166 = DIRECTION ( 'NONE',  ( -1.365923996832131600E-016, 1.000000000000000000, 0.0000000000000000000 ) ) ;
#167 = FACE_OUTER_BOUND ( 'NONE', #68, .T. ) ;
#168 = CARTESIAN_POINT ( 'NONE',  ( 6.349999999999998800, -6.349999999999998800, 3.000000000000000000 ) ) ;
#169 = DATE_AND_TIME ( #233, #98 ) ;
#170 = CARTESIAN_POINT ( 'NONE',  ( 6.349999999999998800, -6.349999999999998800, 3.000000000000000000 ) ) ;
#171 = AXIS2_PLACEMENT_3D ( 'NONE', #33, #193, #190 ) ;
#172 = VERTEX_POINT ( 'NONE', #19 ) ;
#173 = LOCAL_TIME ( 9, 2, 11.00000000000000000, #126 ) ;
#174 = LINE ( 'NONE', #50, #103 ) ;
#175 = APPROVAL_STATUS ( 'not_yet_approved' ) ;
#176 = APPROVAL_PERSON_ORGANIZATION ( #27, #189, #179 ) ;
#177 =( NAMED_UNIT ( * ) PLANE_ANGLE_UNIT ( ) SI_UNIT ( $, .RADIAN. ) );
#178 = DIRECTION ( 'NONE',  ( 1.000000000000000000, 0.0000000000000000000, 0.0000000000000000000 ) ) ;
#179 = APPROVAL_ROLE ( '' ) ;
#180 = LOCAL_TIME ( 9, 2, 11.00000000000000000, #202 ) ;
#181 = COORDINATED_UNIVERSAL_TIME_OFFSET ( 5, 0, .BEHIND. ) ;
#182 = PERSON_AND_ORGANIZATION ( #30, #227 ) ;
#183 = CC_DESIGN_APPROVAL ( #158, ( #80 ) ) ;
#184 = ORIENTED_EDGE ( 'NONE', *, *, #114, .T. ) ;
#185 = DATE_AND_TIME ( #165, #173 ) ;
#186 = CC_DESIGN_APPROVAL ( #189, ( #149 ) ) ;
#187 = SHAPE_DEFINITION_REPRESENTATION ( #135, #232 ) ;
#188 = CARTESIAN_POINT ( 'NONE',  ( 6.349999999999998800, -6.349999999999998800, 3.000000000000000000 ) ) ;
#189 = APPROVAL ( #213, 'UNSPECIFIED' ) ;
#190 = DIRECTION ( 'NONE',  ( 1.000000000000000000, 0.0000000000000000000, -0.0000000000000000000 ) ) ;
#191 = ORIENTED_EDGE ( 'NONE', *, *, #34, .T. ) ;
#192 = CARTESIAN_POINT ( 'NONE',  ( -6.350000000000000500, -6.350000000000000500, 3.000000000000000000 ) ) ;
#193 = DIRECTION ( 'NONE',  ( 0.0000000000000000000, -0.0000000000000000000, 1.000000000000000000 ) ) ;
#194 = APPROVAL_DATE_TIME ( #169, #143 ) ;
#195 = CARTESIAN_POINT ( 'NONE',  ( -6.350000000000000500, -6.350000000000000500, 3.000000000000000000 ) ) ;
#196 = DIRECTION ( 'NONE',  ( -1.000000000000000000, 0.0000000000000000000, 0.0000000000000000000 ) ) ;
#197 = PRODUCT ( 'Web Model 64397MX_64397', 'Web Model 64397MX_64397', '', ( #79 ) ) ;
#198 = APPROVAL_DATE_TIME ( #137, #189 ) ;
#199 = EDGE_CURVE ( 'NONE', #83, #212, #216, .T. ) ;
#200 = ORIENTED_EDGE ( 'NONE', *, *, #210, .T. ) ;
#201 = CC_DESIGN_PERSON_AND_ORGANIZATION_ASSIGNMENT ( #25, #117, ( #152 ) ) ;
#202 = COORDINATED_UNIVERSAL_TIME_OFFSET ( 5, 0, .BEHIND. ) ;
#203 = CARTESIAN_POINT ( 'NONE',  ( 6.349999999999998800, -6.349999999999998800, -3.000000000000000000 ) ) ;
#204 = DIRECTION ( 'NONE',  ( 1.000000000000000000, 1.365923996832131600E-016, -0.0000000000000000000 ) ) ;
#205 = CC_DESIGN_SECURITY_CLASSIFICATION ( #152, ( #80 ) ) ;
#206 = CARTESIAN_POINT ( 'NONE',  ( -6.350000000000000500, -6.350000000000000500, -3.000000000000000000 ) ) ;
#207 = AXIS2_PLACEMENT_3D ( 'NONE', #88, #72, #10 ) ;
#208 = ORIENTED_EDGE ( 'NONE', *, *, #87, .F. ) ;
#209 = PERSON_AND_ORGANIZATION ( #30, #227 ) ;
#210 = EDGE_CURVE ( 'NONE', #212, #75, #65, .T. ) ;
#211 = LINE ( 'NONE', #104, #105 ) ;
#212 = VERTEX_POINT ( 'NONE', #195 ) ;
#213 = APPROVAL_STATUS ( 'not_yet_approved' ) ;
#214 = APPLICATION_PROTOCOL_DEFINITION ( 'international standard', 'config_control_design', 1994, #81 ) ;
#215 = EDGE_LOOP ( 'NONE', ( #101, #118, #123, #59 ) ) ;
#216 = LINE ( 'NONE', #55, #47 ) ;
#217 = ORIENTED_EDGE ( 'NONE', *, *, #131, .F. ) ;
#218 = LINE ( 'NONE', #203, #69 ) ;
#219 = PLANE ( 'NONE',  #39 ) ;
#220 = DIRECTION ( 'NONE',  ( -0.0000000000000000000, -0.0000000000000000000, -1.000000000000000000 ) ) ;
#221 = VECTOR ( 'NONE', #85, 1000.000000000000000 ) ;
#222 = DIRECTION ( 'NONE',  ( -0.0000000000000000000, -0.0000000000000000000, -1.000000000000000000 ) ) ;
#223 = DIRECTION ( 'NONE',  ( -0.0000000000000000000, -1.000000000000000000, -0.0000000000000000000 ) ) ;
#224 = PERSON_AND_ORGANIZATION ( #30, #227 ) ;
#225 = ORIENTED_EDGE ( 'NONE', *, *, #199, .T. ) ;
#226 = CLOSED_SHELL ( 'NONE', ( #124, #49, #231, #29, #154, #54 ) ) ;
#227 = ORGANIZATION ( 'UNSPECIFIED', 'UNSPECIFIED', '' ) ;
#228 = APPROVAL_ROLE ( '' ) ;
#229 = PERSON_AND_ORGANIZATION_ROLE ( 'design_owner' ) ;
#230 = ORIENTED_EDGE ( 'NONE', *, *, #9, .F. ) ;
#231 = ADVANCED_FACE ( 'NONE', ( #236 ), #140, .F. ) ;
#232 = ADVANCED_BREP_SHAPE_REPRESENTATION ( 'Web Model 64397MX_64397', ( #142, #48 ), #1 ) ;
#233 = CALENDAR_DATE ( 2017, 30, 10 ) ;
#234 = CALENDAR_DATE ( 2017, 30, 10 ) ;
#235 = CARTESIAN_POINT ( 'NONE',  ( 6.349999999999998800, 6.350000000000000500, 3.000000000000000000 ) ) ;
#236 = FACE_OUTER_BOUND ( 'NONE', #52, .T. ) ;
#237 = CARTESIAN_POINT ( 'NONE',  ( 6.349999999999998800, -6.349999999999998800, -3.000000000000000000 ) ) ;
ENDSEC;
END-ISO-10303-21;
