ISO-10303-21;
HEADER;
FILE_DESCRIPTION (( 'STEP AP203' ),
    '1' );
FILE_NAME ('Web Model 48427_55261.step',
    '2018-03-12T20:53:53',
    ( '' ),
    ( '' ),
    'SwSTEP 2.0',
    'SolidWorks 2016',
    '' );
FILE_SCHEMA (( 'CONFIG_CONTROL_DESIGN' ));
ENDSEC;

DATA;
#1 = DIRECTION ( 'NONE',  ( 0.0000000000000000000, 0.0000000000000000000, 1.000000000000000000 ) ) ;
#2 = ORIENTED_EDGE ( 'NONE', *, *, #36, .F. ) ;
#3 = DATE_TIME_ROLE ( 'creation_date' ) ;
#4 = EDGE_CURVE ( 'NONE', #175, #56, #73, .T. ) ;
#5 = CC_DESIGN_APPROVAL ( #197, ( #135 ) ) ;
#6 = CALENDAR_DATE ( 2018, 12, 3 ) ;
#7 = VECTOR ( 'NONE', #183, 1000.000000000000000 ) ;
#8 = CARTESIAN_POINT ( 'NONE',  ( 4.750000000000000000, -15.00000000000000200, -15.00000000000000500 ) ) ;
#9 = CARTESIAN_POINT ( 'NONE',  ( 4.750000000000000000, 14.99999999999999800, -15.00000000000000000 ) ) ;
#10 = PLANE ( 'NONE',  #154 ) ;
#11 = LOCAL_TIME ( 16, 53, 53.00000000000000000, #57 ) ;
#12 = ORIENTED_EDGE ( 'NONE', *, *, #24, .T. ) ;
#13 = DIRECTION ( 'NONE',  ( 0.0000000000000000000, -1.000000000000000000, 1.734723475976807100E-016 ) ) ;
#14 = DATE_AND_TIME ( #76, #163 ) ;
#15 = ORIENTED_EDGE ( 'NONE', *, *, #54, .T. ) ;
#16 = CARTESIAN_POINT ( 'NONE',  ( 4.750000000000000000, 0.0000000000000000000, 0.0000000000000000000 ) ) ;
#17 = DIRECTION ( 'NONE',  ( 0.0000000000000000000, -1.000000000000000000, 0.0000000000000000000 ) ) ;
#18 = EDGE_LOOP ( 'NONE', ( #215, #39, #2, #26 ) ) ;
#19 = EDGE_LOOP ( 'NONE', ( #15, #91, #194, #182 ) ) ;
#20 = DIRECTION ( 'NONE',  ( 1.000000000000000000, 0.0000000000000000000, 0.0000000000000000000 ) ) ;
#21 = APPLICATION_PROTOCOL_DEFINITION ( 'international standard', 'config_control_design', 1994, #89 ) ;
#22 = APPROVAL_STATUS ( 'not_yet_approved' ) ;
#23 = CARTESIAN_POINT ( 'NONE',  ( 4.750000000000000000, -15.00000000000000200, 15.00000000000000500 ) ) ;
#24 = EDGE_CURVE ( 'NONE', #83, #175, #107, .T. ) ;
#25 = VECTOR ( 'NONE', #101, 1000.000000000000000 ) ;
#26 = ORIENTED_EDGE ( 'NONE', *, *, #64, .T. ) ;
#27 = UNCERTAINTY_MEASURE_WITH_UNIT (LENGTH_MEASURE( 1.000000000000000100E-005 ), #88, 'distance_accuracy_value', 'NONE');
#28 = VECTOR ( 'NONE', #43, 1000.000000000000000 ) ;
#29 = ADVANCED_BREP_SHAPE_REPRESENTATION ( 'Web Model 48427_55261', ( #113, #202 ), #212 ) ;
#30 = EDGE_CURVE ( 'NONE', #125, #210, #145, .T. ) ;
#31 = CARTESIAN_POINT ( 'NONE',  ( 4.750000000000000000, 14.99999999999999800, 15.00000000000000000 ) ) ;
#32 = CALENDAR_DATE ( 2018, 12, 3 ) ;
#33 = EDGE_LOOP ( 'NONE', ( #81, #128, #195, #77 ) ) ;
#34 = CARTESIAN_POINT ( 'NONE',  ( 4.750000000000000000, 14.99999999999999800, -15.00000000000000000 ) ) ;
#35 = PLANE ( 'NONE',  #118 ) ;
#36 = EDGE_CURVE ( 'NONE', #100, #125, #207, .T. ) ;
#37 = APPROVAL_DATE_TIME ( #114, #111 ) ;
#38 = DIRECTION ( 'NONE',  ( -0.0000000000000000000, 1.000000000000000000, 1.734723475976807100E-016 ) ) ;
#39 = ORIENTED_EDGE ( 'NONE', *, *, #169, .F. ) ;
#40 = CC_DESIGN_PERSON_AND_ORGANIZATION_ASSIGNMENT ( #176, #48, ( #178 ) ) ;
#41 = CARTESIAN_POINT ( 'NONE',  ( 0.0000000000000000000, 0.0000000000000000000, 0.0000000000000000000 ) ) ;
#42 = CC_DESIGN_SECURITY_CLASSIFICATION ( #109, ( #135 ) ) ;
#43 = DIRECTION ( 'NONE',  ( 0.0000000000000000000, 0.0000000000000000000, -1.000000000000000000 ) ) ;
#44 = APPLICATION_CONTEXT ( 'configuration controlled 3d designs of mechanical parts and assemblies' ) ;
#45 = LINE ( 'NONE', #127, #228 ) ;
#46 = APPROVAL_DATE_TIME ( #137, #140 ) ;
#47 = AXIS2_PLACEMENT_3D ( 'NONE', #189, #99, #116 ) ;
#48 = PERSON_AND_ORGANIZATION_ROLE ( 'creator' ) ;
#49 = SECURITY_CLASSIFICATION_LEVEL ( 'unclassified' ) ;
#50 =( NAMED_UNIT ( * ) SI_UNIT ( $, .STERADIAN. ) SOLID_ANGLE_UNIT ( ) );
#51 = CALENDAR_DATE ( 2018, 12, 3 ) ;
#52 = APPROVAL_DATE_TIME ( #92, #197 ) ;
#53 = EDGE_LOOP ( 'NONE', ( #120, #186, #130, #12 ) ) ;
#54 = EDGE_CURVE ( 'NONE', #165, #175, #153, .T. ) ;
#55 = CARTESIAN_POINT ( 'NONE',  ( -4.750000000000000000, 14.99999999999999800, -15.00000000000000000 ) ) ;
#56 = VERTEX_POINT ( 'NONE', #162 ) ;
#57 = COORDINATED_UNIVERSAL_TIME_OFFSET ( 5, 0, .BEHIND. ) ;
#58 = ADVANCED_FACE ( 'NONE', ( #94 ), #63, .F. ) ;
#59 = EDGE_CURVE ( 'NONE', #143, #165, #237, .T. ) ;
#60 = PERSON ( 'UNSPECIFIED', 'UNSPECIFIED', 'UNSPECIFIED', ('UNSPECIFIED'), ('UNSPECIFIED'), ('UNSPECIFIED') ) ;
#61 = LOCAL_TIME ( 16, 53, 53.00000000000000000, #149 ) ;
#62 = VECTOR ( 'NONE', #180, 1000.000000000000000 ) ;
#63 = PLANE ( 'NONE',  #72 ) ;
#64 = EDGE_CURVE ( 'NONE', #100, #56, #139, .T. ) ;
#65 = LINE ( 'NONE', #236, #28 ) ;
#66 = CARTESIAN_POINT ( 'NONE',  ( -4.750000000000000000, -15.00000000000000200, 15.00000000000000500 ) ) ;
#67 = VECTOR ( 'NONE', #13, 1000.000000000000000 ) ;
#68 = PLANE ( 'NONE',  #226 ) ;
#69 = CARTESIAN_POINT ( 'NONE',  ( 4.750000000000000000, 14.99999999999999800, 15.00000000000000000 ) ) ;
#70 = LOCAL_TIME ( 16, 53, 53.00000000000000000, #199 ) ;
#71 = APPROVAL_STATUS ( 'not_yet_approved' ) ;
#72 = AXIS2_PLACEMENT_3D ( 'NONE', #95, #85, #231 ) ;
#73 = LINE ( 'NONE', #55, #234 ) ;
#74 = PERSON_AND_ORGANIZATION ( #60, #155 ) ;
#75 = CC_DESIGN_PERSON_AND_ORGANIZATION_ASSIGNMENT ( #80, #136, ( #201 ) ) ;
#76 = CALENDAR_DATE ( 2018, 12, 3 ) ;
#77 = ORIENTED_EDGE ( 'NONE', *, *, #169, .T. ) ;
#78 = EDGE_CURVE ( 'NONE', #83, #100, #221, .T. ) ;
#79 = CARTESIAN_POINT ( 'NONE',  ( 4.750000000000000000, 14.99999999999999800, 15.00000000000000000 ) ) ;
#80 = PERSON_AND_ORGANIZATION ( #60, #155 ) ;
#81 = ORIENTED_EDGE ( 'NONE', *, *, #59, .T. ) ;
#82 = DIRECTION ( 'NONE',  ( 0.0000000000000000000, -1.000000000000000000, -1.734723475976807100E-016 ) ) ;
#83 = VERTEX_POINT ( 'NONE', #230 ) ;
#84 = CC_DESIGN_PERSON_AND_ORGANIZATION_ASSIGNMENT ( #142, #224, ( #135 ) ) ;
#85 = DIRECTION ( 'NONE',  ( 0.0000000000000000000, -1.734723475976807100E-016, -1.000000000000000000 ) ) ;
#86 = EDGE_CURVE ( 'NONE', #56, #143, #45, .T. ) ;
#87 = ORIENTED_EDGE ( 'NONE', *, *, #54, .F. ) ;
#88 =( LENGTH_UNIT ( ) NAMED_UNIT ( * ) SI_UNIT ( .MILLI., .METRE. ) );
#89 = APPLICATION_CONTEXT ( 'configuration controlled 3d designs of mechanical parts and assemblies' ) ;
#90 = ADVANCED_FACE ( 'NONE', ( #156 ), #35, .F. ) ;
#91 = ORIENTED_EDGE ( 'NONE', *, *, #24, .F. ) ;
#92 = DATE_AND_TIME ( #157, #70 ) ;
#93 = ORIENTED_EDGE ( 'NONE', *, *, #4, .F. ) ;
#94 = FACE_OUTER_BOUND ( 'NONE', #33, .T. ) ;
#95 = CARTESIAN_POINT ( 'NONE',  ( 4.750000000000000000, 14.99999999999999800, 15.00000000000000000 ) ) ;
#96 = VECTOR ( 'NONE', #218, 1000.000000000000000 ) ;
#97 = ORIENTED_EDGE ( 'NONE', *, *, #59, .F. ) ;
#98 = CARTESIAN_POINT ( 'NONE',  ( 4.750000000000000000, -15.00000000000000200, 15.00000000000000500 ) ) ;
#99 = DIRECTION ( 'NONE',  ( -0.0000000000000000000, 1.000000000000000000, 0.0000000000000000000 ) ) ;
#100 = VERTEX_POINT ( 'NONE', #9 ) ;
#101 = DIRECTION ( 'NONE',  ( -1.000000000000000000, -0.0000000000000000000, -0.0000000000000000000 ) ) ;
#102 = CC_DESIGN_PERSON_AND_ORGANIZATION_ASSIGNMENT ( #198, #150, ( #135 ) ) ;
#103 = ADVANCED_FACE ( 'NONE', ( #190 ), #10, .F. ) ;
#104 = DIRECTION ( 'NONE',  ( 1.000000000000000000, 0.0000000000000000000, 0.0000000000000000000 ) ) ;
#105 = LINE ( 'NONE', #146, #25 ) ;
#106 = FACE_OUTER_BOUND ( 'NONE', #138, .T. ) ;
#107 = LINE ( 'NONE', #8, #214 ) ;
#108 = DESIGN_CONTEXT ( 'detailed design', #89, 'design' ) ;
#109 = SECURITY_CLASSIFICATION ( '', '', #49 ) ;
#110 = CARTESIAN_POINT ( 'NONE',  ( -4.750000000000000000, 14.99999999999999800, 15.00000000000000000 ) ) ;
#111 = APPROVAL ( #71, 'UNSPECIFIED' ) ;
#112 = DIRECTION ( 'NONE',  ( 0.0000000000000000000, -0.0000000000000000000, -1.000000000000000000 ) ) ;
#113 = MANIFOLD_SOLID_BREP ( 'Boss-Extrude1', #134 ) ;
#114 = DATE_AND_TIME ( #32, #179 ) ;
#115 = EDGE_LOOP ( 'NONE', ( #97, #200, #93, #87 ) ) ;
#116 = DIRECTION ( 'NONE',  ( 0.0000000000000000000, -0.0000000000000000000, 1.000000000000000000 ) ) ;
#117 = PERSON_AND_ORGANIZATION_ROLE ( 'classification_officer' ) ;
#118 = AXIS2_PLACEMENT_3D ( 'NONE', #34, #160, #82 ) ;
#119 = ADVANCED_FACE ( 'NONE', ( #181 ), #206, .F. ) ;
#120 = ORIENTED_EDGE ( 'NONE', *, *, #4, .T. ) ;
#121 = CC_DESIGN_PERSON_AND_ORGANIZATION_ASSIGNMENT ( #161, #117, ( #109 ) ) ;
#122 = DIRECTION ( 'NONE',  ( -1.000000000000000000, -0.0000000000000000000, -0.0000000000000000000 ) ) ;
#123 = COORDINATED_UNIVERSAL_TIME_OFFSET ( 5, 0, .BEHIND. ) ;
#124 = ADVANCED_FACE ( 'NONE', ( #106 ), #68, .T. ) ;
#125 = VERTEX_POINT ( 'NONE', #69 ) ;
#126 = PRODUCT_RELATED_PRODUCT_CATEGORY ( 'detail', '', ( #201 ) ) ;
#127 = CARTESIAN_POINT ( 'NONE',  ( -4.750000000000000000, 14.99999999999999800, 15.00000000000000000 ) ) ;
#128 = ORIENTED_EDGE ( 'NONE', *, *, #235, .F. ) ;
#129 = CARTESIAN_POINT ( 'NONE',  ( -4.750000000000000000, 14.99999999999999800, 15.00000000000000000 ) ) ;
#130 = ORIENTED_EDGE ( 'NONE', *, *, #78, .F. ) ;
#131 = DIRECTION ( 'NONE',  ( 0.0000000000000000000, 0.0000000000000000000, -1.000000000000000000 ) ) ;
#132 = CC_DESIGN_DATE_AND_TIME_ASSIGNMENT ( #173, #152, ( #109 ) ) ;
#133 = LINE ( 'NONE', #23, #213 ) ;
#134 = CLOSED_SHELL ( 'NONE', ( #58, #229, #90, #103, #124, #119 ) ) ;
#135 = PRODUCT_DEFINITION_FORMATION_WITH_SPECIFIED_SOURCE ( 'ANY', '', #201, .NOT_KNOWN. ) ;
#136 = PERSON_AND_ORGANIZATION_ROLE ( 'design_owner' ) ;
#137 = DATE_AND_TIME ( #51, #11 ) ;
#138 = EDGE_LOOP ( 'NONE', ( #148, #223, #177, #187 ) ) ;
#139 = LINE ( 'NONE', #203, #172 ) ;
#140 = APPROVAL ( #170, 'UNSPECIFIED' ) ;
#141 = CARTESIAN_POINT ( 'NONE',  ( 4.750000000000000000, 14.99999999999999800, -15.00000000000000000 ) ) ;
#142 = PERSON_AND_ORGANIZATION ( #60, #155 ) ;
#143 = VERTEX_POINT ( 'NONE', #129 ) ;
#144 = DIRECTION ( 'NONE',  ( -0.0000000000000000000, -0.0000000000000000000, 1.000000000000000000 ) ) ;
#145 = LINE ( 'NONE', #31, #96 ) ;
#146 = CARTESIAN_POINT ( 'NONE',  ( 4.750000000000000000, 14.99999999999999800, 15.00000000000000000 ) ) ;
#147 = CARTESIAN_POINT ( 'NONE',  ( 4.750000000000000000, 14.99999999999999800, 15.00000000000000000 ) ) ;
#148 = ORIENTED_EDGE ( 'NONE', *, *, #30, .T. ) ;
#149 = COORDINATED_UNIVERSAL_TIME_OFFSET ( 5, 0, .BEHIND. ) ;
#150 = PERSON_AND_ORGANIZATION_ROLE ( 'design_supplier' ) ;
#151 = SHAPE_DEFINITION_REPRESENTATION ( #188, #29 ) ;
#152 = DATE_TIME_ROLE ( 'classification_date' ) ;
#153 = LINE ( 'NONE', #196, #7 ) ;
#154 = AXIS2_PLACEMENT_3D ( 'NONE', #147, #17, #112 ) ;
#155 = ORGANIZATION ( 'UNSPECIFIED', 'UNSPECIFIED', '' ) ;
#156 = FACE_OUTER_BOUND ( 'NONE', #53, .T. ) ;
#157 = CALENDAR_DATE ( 2018, 12, 3 ) ;
#158 = EDGE_CURVE ( 'NONE', #210, #83, #65, .T. ) ;
#159 = APPROVAL_PERSON_ORGANIZATION ( #208, #197, #191 ) ;
#160 = DIRECTION ( 'NONE',  ( 0.0000000000000000000, -1.734723475976807100E-016, 1.000000000000000000 ) ) ;
#161 = PERSON_AND_ORGANIZATION ( #60, #155 ) ;
#162 = CARTESIAN_POINT ( 'NONE',  ( -4.750000000000000000, 14.99999999999999800, -15.00000000000000000 ) ) ;
#163 = LOCAL_TIME ( 16, 53, 53.00000000000000000, #217 ) ;
#164 = CARTESIAN_POINT ( 'NONE',  ( -4.750000000000000000, 0.0000000000000000000, 0.0000000000000000000 ) ) ;
#165 = VERTEX_POINT ( 'NONE', #66 ) ;
#166 = CARTESIAN_POINT ( 'NONE',  ( -4.750000000000000000, -15.00000000000000200, -15.00000000000000500 ) ) ;
#167 =( NAMED_UNIT ( * ) PLANE_ANGLE_UNIT ( ) SI_UNIT ( $, .RADIAN. ) );
#168 = PERSON_AND_ORGANIZATION ( #60, #155 ) ;
#169 = EDGE_CURVE ( 'NONE', #125, #143, #105, .T. ) ;
#170 = APPROVAL_STATUS ( 'not_yet_approved' ) ;
#171 = DIRECTION ( 'NONE',  ( -1.000000000000000000, -0.0000000000000000000, -0.0000000000000000000 ) ) ;
#172 = VECTOR ( 'NONE', #219, 1000.000000000000000 ) ;
#173 = DATE_AND_TIME ( #6, #61 ) ;
#174 = CC_DESIGN_DATE_AND_TIME_ASSIGNMENT ( #14, #3, ( #178 ) ) ;
#175 = VERTEX_POINT ( 'NONE', #166 ) ;
#176 = PERSON_AND_ORGANIZATION ( #60, #155 ) ;
#177 = ORIENTED_EDGE ( 'NONE', *, *, #78, .T. ) ;
#178 = PRODUCT_DEFINITION ( 'UNKNOWN', '', #135, #108 ) ;
#179 = LOCAL_TIME ( 16, 53, 53.00000000000000000, #123 ) ;
#180 = DIRECTION ( 'NONE',  ( -0.0000000000000000000, -0.0000000000000000000, 1.000000000000000000 ) ) ;
#181 = FACE_OUTER_BOUND ( 'NONE', #115, .T. ) ;
#182 = ORIENTED_EDGE ( 'NONE', *, *, #235, .T. ) ;
#183 = DIRECTION ( 'NONE',  ( 0.0000000000000000000, 0.0000000000000000000, -1.000000000000000000 ) ) ;
#184 = PLANE ( 'NONE',  #47 ) ;
#185 = DIRECTION ( 'NONE',  ( 0.0000000000000000000, 0.0000000000000000000, -1.000000000000000000 ) ) ;
#186 = ORIENTED_EDGE ( 'NONE', *, *, #64, .F. ) ;
#187 = ORIENTED_EDGE ( 'NONE', *, *, #36, .T. ) ;
#188 = PRODUCT_DEFINITION_SHAPE ( 'NONE', 'NONE',  #178 ) ;
#189 = CARTESIAN_POINT ( 'NONE',  ( 4.750000000000000000, -15.00000000000000200, 15.00000000000000500 ) ) ;
#190 = FACE_OUTER_BOUND ( 'NONE', #18, .T. ) ;
#191 = APPROVAL_ROLE ( '' ) ;
#192 = APPLICATION_PROTOCOL_DEFINITION ( 'international standard', 'config_control_design', 1994, #44 ) ;
#193 = VECTOR ( 'NONE', #38, 1000.000000000000000 ) ;
#194 = ORIENTED_EDGE ( 'NONE', *, *, #158, .F. ) ;
#195 = ORIENTED_EDGE ( 'NONE', *, *, #30, .F. ) ;
#196 = CARTESIAN_POINT ( 'NONE',  ( -4.750000000000000000, -15.00000000000000200, 15.00000000000000500 ) ) ;
#197 = APPROVAL ( #22, 'UNSPECIFIED' ) ;
#198 = PERSON_AND_ORGANIZATION ( #60, #155 ) ;
#199 = COORDINATED_UNIVERSAL_TIME_OFFSET ( 5, 0, .BEHIND. ) ;
#200 = ORIENTED_EDGE ( 'NONE', *, *, #86, .F. ) ;
#201 = PRODUCT ( 'Web Model 48427_55261', 'Web Model 48427_55261', '', ( #209 ) ) ;
#202 = AXIS2_PLACEMENT_3D ( 'NONE', #41, #1, #104 ) ;
#203 = CARTESIAN_POINT ( 'NONE',  ( 4.750000000000000000, 14.99999999999999800, -15.00000000000000000 ) ) ;
#204 = AXIS2_PLACEMENT_3D ( 'NONE', #164, #205, #131 ) ;
#205 = DIRECTION ( 'NONE',  ( 1.000000000000000000, 0.0000000000000000000, 0.0000000000000000000 ) ) ;
#206 = PLANE ( 'NONE',  #204 ) ;
#207 = LINE ( 'NONE', #79, #62 ) ;
#208 = PERSON_AND_ORGANIZATION ( #60, #155 ) ;
#209 = MECHANICAL_CONTEXT ( 'NONE', #44, 'mechanical' ) ;
#210 = VERTEX_POINT ( 'NONE', #98 ) ;
#211 = APPROVAL_ROLE ( '' ) ;
#212 =( GEOMETRIC_REPRESENTATION_CONTEXT ( 3 ) GLOBAL_UNCERTAINTY_ASSIGNED_CONTEXT ( ( #27 ) ) GLOBAL_UNIT_ASSIGNED_CONTEXT ( ( #88, #167, #50 ) ) REPRESENTATION_CONTEXT ( 'NONE', 'WORKASPACE' ) );
#213 = VECTOR ( 'NONE', #171, 1000.000000000000000 ) ;
#214 = VECTOR ( 'NONE', #122, 1000.000000000000000 ) ;
#215 = ORIENTED_EDGE ( 'NONE', *, *, #86, .T. ) ;
#216 = DIRECTION ( 'NONE',  ( -0.0000000000000000000, 1.000000000000000000, 1.734723475976807100E-016 ) ) ;
#217 = COORDINATED_UNIVERSAL_TIME_OFFSET ( 5, 0, .BEHIND. ) ;
#218 = DIRECTION ( 'NONE',  ( 0.0000000000000000000, -1.000000000000000000, 1.734723475976807100E-016 ) ) ;
#219 = DIRECTION ( 'NONE',  ( -1.000000000000000000, -0.0000000000000000000, -0.0000000000000000000 ) ) ;
#220 = FACE_OUTER_BOUND ( 'NONE', #19, .T. ) ;
#221 = LINE ( 'NONE', #141, #193 ) ;
#222 = CC_DESIGN_APPROVAL ( #140, ( #109 ) ) ;
#223 = ORIENTED_EDGE ( 'NONE', *, *, #158, .T. ) ;
#224 = PERSON_AND_ORGANIZATION_ROLE ( 'creator' ) ;
#225 = APPROVAL_ROLE ( '' ) ;
#226 = AXIS2_PLACEMENT_3D ( 'NONE', #16, #20, #185 ) ;
#227 = APPROVAL_PERSON_ORGANIZATION ( #168, #111, #225 ) ;
#228 = VECTOR ( 'NONE', #144, 1000.000000000000000 ) ;
#229 = ADVANCED_FACE ( 'NONE', ( #220 ), #184, .F. ) ;
#230 = CARTESIAN_POINT ( 'NONE',  ( 4.750000000000000000, -15.00000000000000200, -15.00000000000000500 ) ) ;
#231 = DIRECTION ( 'NONE',  ( 0.0000000000000000000, 1.000000000000000000, -1.734723475976807100E-016 ) ) ;
#232 = APPROVAL_PERSON_ORGANIZATION ( #74, #140, #211 ) ;
#233 = CC_DESIGN_APPROVAL ( #111, ( #178 ) ) ;
#234 = VECTOR ( 'NONE', #216, 1000.000000000000000 ) ;
#235 = EDGE_CURVE ( 'NONE', #210, #165, #133, .T. ) ;
#236 = CARTESIAN_POINT ( 'NONE',  ( 4.750000000000000000, -15.00000000000000200, 15.00000000000000500 ) ) ;
#237 = LINE ( 'NONE', #110, #67 ) ;
ENDSEC;
END-ISO-10303-21;
