ISO-10303-21;
HEADER;
FILE_DESCRIPTION (( 'STEP AP203' ),
    '1' );
FILE_NAME ('Web Model 37128MX_15752.step',
    '2020-10-19T15:41:25',
    ( '' ),
    ( '' ),
    'SwSTEP 2.0',
    'SolidWorks 2018',
    '' );
FILE_SCHEMA (( 'CONFIG_CONTROL_DESIGN' ));
ENDSEC;

DATA;
#1 = AXIS2_PLACEMENT_3D ( 'NONE', #227, #155, #212 ) ;
#2 = MECHANICAL_CONTEXT ( 'NONE', #57, 'mechanical' ) ;
#3 =( NAMED_UNIT ( * ) SI_UNIT ( $, .STERADIAN. ) SOLID_ANGLE_UNIT ( ) );
#4 = CARTESIAN_POINT ( 'NONE',  ( 12.50000000000000533, 12.49999999999999822, 3.000000000000000000 ) ) ;
#5 = APPROVAL ( #114, 'UNSPECIFIED' ) ;
#6 = LINE ( 'NONE', #188, #55 ) ;
#7 = ORIENTED_EDGE ( 'NONE', *, *, #90, .F. ) ;
#8 = PERSON_AND_ORGANIZATION ( #112, #75 ) ;
#9 = CARTESIAN_POINT ( 'NONE',  ( -12.49999999999999467, 12.49999999999999467, -3.000000000000000000 ) ) ;
#10 = CARTESIAN_POINT ( 'NONE',  ( -12.49999999999999467, -12.50000000000000533, -3.000000000000000000 ) ) ;
#11 = PLANE ( 'NONE',  #197 ) ;
#12 = VECTOR ( 'NONE', #226, 1000.000000000000000 ) ;
#13 = APPROVAL_PERSON_ORGANIZATION ( #187, #218, #200 ) ;
#14 = EDGE_CURVE ( 'NONE', #232, #29, #49, .T. ) ;
#15 = ADVANCED_FACE ( 'NONE', ( #170 ), #78, .T. ) ;
#16 = LOCAL_TIME ( 11, 41, 25.00000000000000000, #51 ) ;
#17 = VERTEX_POINT ( 'NONE', #207 ) ;
#18 = PERSON_AND_ORGANIZATION_ROLE ( 'creator' ) ;
#19 = PRODUCT ( 'Web Model 37128MX_15752', 'Web Model 37128MX_15752', '', ( #2 ) ) ;
#20 = CALENDAR_DATE ( 2020, 19, 10 ) ;
#21 = DIRECTION ( 'NONE',  ( 1.000000000000000000, 1.387778780781445676E-16, -0.0000000000000000000 ) ) ;
#22 = PERSON_AND_ORGANIZATION_ROLE ( 'design_supplier' ) ;
#23 = CARTESIAN_POINT ( 'NONE',  ( -12.49999999999999467, -12.50000000000000533, -3.000000000000000000 ) ) ;
#24 = PERSON_AND_ORGANIZATION_ROLE ( 'design_owner' ) ;
#25 = COORDINATED_UNIVERSAL_TIME_OFFSET ( 5, 0, .BEHIND. ) ;
#26 = ORIENTED_EDGE ( 'NONE', *, *, #139, .T. ) ;
#27 = DIRECTION ( 'NONE',  ( 1.000000000000000000, 0.0000000000000000000, -0.0000000000000000000 ) ) ;
#28 = COORDINATED_UNIVERSAL_TIME_OFFSET ( 5, 0, .BEHIND. ) ;
#29 = VERTEX_POINT ( 'NONE', #122 ) ;
#30 = CC_DESIGN_DATE_AND_TIME_ASSIGNMENT ( #70, #221, ( #48 ) ) ;
#31 = PERSON_AND_ORGANIZATION ( #112, #75 ) ;
#32 = VERTEX_POINT ( 'NONE', #10 ) ;
#33 = CARTESIAN_POINT ( 'NONE',  ( 12.50000000000000533, -12.50000000000000178, -3.000000000000000000 ) ) ;
#34 = EDGE_CURVE ( 'NONE', #137, #103, #81, .T. ) ;
#35 = ORIENTED_EDGE ( 'NONE', *, *, #90, .T. ) ;
#36 = LINE ( 'NONE', #99, #52 ) ;
#37 = LINE ( 'NONE', #201, #79 ) ;
#38 = APPROVAL_ROLE ( '' ) ;
#39 =( LENGTH_UNIT ( ) NAMED_UNIT ( * ) SI_UNIT ( .MILLI., .METRE. ) );
#40 = AXIS2_PLACEMENT_3D ( 'NONE', #62, #223, #27 ) ;
#41 = DATE_TIME_ROLE ( 'classification_date' ) ;
#42 = VECTOR ( 'NONE', #43, 1000.000000000000000 ) ;
#43 = DIRECTION ( 'NONE',  ( -1.000000000000000000, -1.387778780781445676E-16, 0.0000000000000000000 ) ) ;
#44 = SECURITY_CLASSIFICATION ( '', '', #132 ) ;
#45 = ORIENTED_EDGE ( 'NONE', *, *, #14, .F. ) ;
#46 = ORIENTED_EDGE ( 'NONE', *, *, #157, .T. ) ;
#47 = DIRECTION ( 'NONE',  ( 0.0000000000000000000, -0.0000000000000000000, 1.000000000000000000 ) ) ;
#48 = PRODUCT_DEFINITION ( 'UNKNOWN', '', #50, #93 ) ;
#49 = LINE ( 'NONE', #152, #42 ) ;
#50 = PRODUCT_DEFINITION_FORMATION_WITH_SPECIFIED_SOURCE ( 'ANY', '', #19, .NOT_KNOWN. ) ;
#51 = COORDINATED_UNIVERSAL_TIME_OFFSET ( 5, 0, .BEHIND. ) ;
#52 = VECTOR ( 'NONE', #98, 1000.000000000000000 ) ;
#53 = DATE_AND_TIME ( #153, #121 ) ;
#54 = AXIS2_PLACEMENT_3D ( 'NONE', #229, #189, #154 ) ;
#55 = VECTOR ( 'NONE', #74, 1000.000000000000000 ) ;
#56 = DIRECTION ( 'NONE',  ( -0.0000000000000000000, -0.0000000000000000000, -1.000000000000000000 ) ) ;
#57 = APPLICATION_CONTEXT ( 'configuration controlled 3d designs of mechanical parts and assemblies' ) ;
#58 = PERSON_AND_ORGANIZATION ( #112, #75 ) ;
#59 = CC_DESIGN_PERSON_AND_ORGANIZATION_ASSIGNMENT ( #8, #73, ( #50 ) ) ;
#60 = APPROVAL_DATE_TIME ( #110, #5 ) ;
#61 = VECTOR ( 'NONE', #182, 1000.000000000000000 ) ;
#62 = CARTESIAN_POINT ( 'NONE',  ( 0.0000000000000000000, 0.0000000000000000000, 3.000000000000000000 ) ) ;
#63 = CC_DESIGN_PERSON_AND_ORGANIZATION_ASSIGNMENT ( #136, #22, ( #50 ) ) ;
#64 = DIRECTION ( 'NONE',  ( -0.0000000000000000000, -1.000000000000000000, -0.0000000000000000000 ) ) ;
#65 = CARTESIAN_POINT ( 'NONE',  ( 12.50000000000000533, -12.50000000000000178, 3.000000000000000000 ) ) ;
#66 = FACE_OUTER_BOUND ( 'NONE', #211, .T. ) ;
#67 = DATE_AND_TIME ( #160, #16 ) ;
#68 = LOCAL_TIME ( 11, 41, 25.00000000000000000, #28 ) ;
#69 = FACE_OUTER_BOUND ( 'NONE', #87, .T. ) ;
#70 = DATE_AND_TIME ( #20, #194 ) ;
#71 = DIRECTION ( 'NONE',  ( 0.0000000000000000000, 0.0000000000000000000, -1.000000000000000000 ) ) ;
#72 = CC_DESIGN_PERSON_AND_ORGANIZATION_ASSIGNMENT ( #95, #18, ( #48 ) ) ;
#73 = PERSON_AND_ORGANIZATION_ROLE ( 'creator' ) ;
#74 = DIRECTION ( 'NONE',  ( -0.0000000000000000000, -0.0000000000000000000, -1.000000000000000000 ) ) ;
#75 = ORGANIZATION ( 'UNSPECIFIED', 'UNSPECIFIED', '' ) ;
#76 = ORIENTED_EDGE ( 'NONE', *, *, #178, .F. ) ;
#77 = APPLICATION_PROTOCOL_DEFINITION ( 'international standard', 'config_control_design', 1994, #185 ) ;
#78 = PLANE ( 'NONE',  #40 ) ;
#79 = VECTOR ( 'NONE', #21, 1000.000000000000000 ) ;
#80 = PLANE ( 'NONE',  #54 ) ;
#81 = LINE ( 'NONE', #224, #235 ) ;
#82 = CARTESIAN_POINT ( 'NONE',  ( 12.50000000000000533, -12.50000000000000178, 3.000000000000000000 ) ) ;
#83 = AXIS2_PLACEMENT_3D ( 'NONE', #183, #146, #117 ) ;
#84 = PLANE ( 'NONE',  #1 ) ;
#85 = FACE_OUTER_BOUND ( 'NONE', #119, .T. ) ;
#86 =( GEOMETRIC_REPRESENTATION_CONTEXT ( 3 ) GLOBAL_UNCERTAINTY_ASSIGNED_CONTEXT ( ( #176 ) ) GLOBAL_UNIT_ASSIGNED_CONTEXT ( ( #39, #113, #3 ) ) REPRESENTATION_CONTEXT ( 'NONE', 'WORKASPACE' ) );
#87 = EDGE_LOOP ( 'NONE', ( #126, #143, #111, #181 ) ) ;
#88 = ADVANCED_FACE ( 'NONE', ( #66 ), #11, .F. ) ;
#89 = ADVANCED_FACE ( 'NONE', ( #228 ), #80, .F. ) ;
#90 = EDGE_CURVE ( 'NONE', #29, #137, #175, .T. ) ;
#91 = EDGE_LOOP ( 'NONE', ( #35, #196, #26, #236 ) ) ;
#92 = EDGE_LOOP ( 'NONE', ( #147, #184, #45, #46 ) ) ;
#93 = DESIGN_CONTEXT ( 'detailed design', #185, 'design' ) ;
#94 = DIRECTION ( 'NONE',  ( -0.0000000000000000000, -1.000000000000000000, -0.0000000000000000000 ) ) ;
#95 = PERSON_AND_ORGANIZATION ( #112, #75 ) ;
#96 = CARTESIAN_POINT ( 'NONE',  ( -12.49999999999999467, -12.50000000000000533, 3.000000000000000000 ) ) ;
#97 = ORIENTED_EDGE ( 'NONE', *, *, #157, .F. ) ;
#98 = DIRECTION ( 'NONE',  ( -0.0000000000000000000, -0.0000000000000000000, -1.000000000000000000 ) ) ;
#99 = CARTESIAN_POINT ( 'NONE',  ( -12.49999999999999467, 12.49999999999999467, 3.000000000000000000 ) ) ;
#100 = ORIENTED_EDGE ( 'NONE', *, *, #195, .T. ) ;
#101 = ORIENTED_EDGE ( 'NONE', *, *, #142, .F. ) ;
#102 = CARTESIAN_POINT ( 'NONE',  ( -12.49999999999999467, -12.50000000000000533, 3.000000000000000000 ) ) ;
#103 = VERTEX_POINT ( 'NONE', #82 ) ;
#104 = CARTESIAN_POINT ( 'NONE',  ( 12.50000000000000533, -12.50000000000000178, 3.000000000000000000 ) ) ;
#105 = CARTESIAN_POINT ( 'NONE',  ( 0.0000000000000000000, 0.0000000000000000000, -3.000000000000000000 ) ) ;
#106 = VECTOR ( 'NONE', #56, 1000.000000000000000 ) ;
#107 = VERTEX_POINT ( 'NONE', #209 ) ;
#108 = ADVANCED_FACE ( 'NONE', ( #69 ), #84, .F. ) ;
#109 = EDGE_CURVE ( 'NONE', #107, #17, #159, .T. ) ;
#110 = DATE_AND_TIME ( #210, #162 ) ;
#111 = ORIENTED_EDGE ( 'NONE', *, *, #34, .F. ) ;
#112 = PERSON ( 'UNSPECIFIED', 'UNSPECIFIED', 'UNSPECIFIED', ('UNSPECIFIED'), ('UNSPECIFIED'), ('UNSPECIFIED') ) ;
#113 =( NAMED_UNIT ( * ) PLANE_ANGLE_UNIT ( ) SI_UNIT ( $, .RADIAN. ) );
#114 = APPROVAL_STATUS ( 'not_yet_approved' ) ;
#115 = CC_DESIGN_PERSON_AND_ORGANIZATION_ASSIGNMENT ( #199, #203, ( #44 ) ) ;
#116 = PLANE ( 'NONE',  #83 ) ;
#117 = DIRECTION ( 'NONE',  ( 0.0000000000000000000, 0.0000000000000000000, 1.000000000000000000 ) ) ;
#118 = PERSON_AND_ORGANIZATION ( #112, #75 ) ;
#119 = EDGE_LOOP ( 'NONE', ( #144, #101, #7, #100 ) ) ;
#120 = AXIS2_PLACEMENT_3D ( 'NONE', #96, #145, #71 ) ;
#121 = LOCAL_TIME ( 11, 41, 25.00000000000000000, #158 ) ;
#122 = CARTESIAN_POINT ( 'NONE',  ( -12.49999999999999467, 12.49999999999999467, 3.000000000000000000 ) ) ;
#123 = CARTESIAN_POINT ( 'NONE',  ( -12.49999999999999467, -12.50000000000000533, 3.000000000000000000 ) ) ;
#124 = APPROVAL_PERSON_ORGANIZATION ( #31, #135, #38 ) ;
#125 = CC_DESIGN_APPROVAL ( #218, ( #50 ) ) ;
#126 = ORIENTED_EDGE ( 'NONE', *, *, #178, .T. ) ;
#127 = ADVANCED_BREP_SHAPE_REPRESENTATION ( 'Web Model 37128MX_15752', ( #216, #205 ), #86 ) ;
#128 = LINE ( 'NONE', #65, #12 ) ;
#129 = CC_DESIGN_APPROVAL ( #5, ( #44 ) ) ;
#130 = APPROVAL_STATUS ( 'not_yet_approved' ) ;
#131 = APPROVAL_STATUS ( 'not_yet_approved' ) ;
#132 = SECURITY_CLASSIFICATION_LEVEL ( 'unclassified' ) ;
#133 = LINE ( 'NONE', #23, #179 ) ;
#134 = EDGE_LOOP ( 'NONE', ( #172, #97, #163, #180 ) ) ;
#135 = APPROVAL ( #130, 'UNSPECIFIED' ) ;
#136 = PERSON_AND_ORGANIZATION ( #112, #75 ) ;
#137 = VERTEX_POINT ( 'NONE', #102 ) ;
#138 = CARTESIAN_POINT ( 'NONE',  ( -12.49999999999999467, -12.50000000000000533, 3.000000000000000000 ) ) ;
#139 = EDGE_CURVE ( 'NONE', #103, #232, #128, .T. ) ;
#140 = APPROVAL_DATE_TIME ( #67, #135 ) ;
#141 = SHAPE_DEFINITION_REPRESENTATION ( #214, #127 ) ;
#142 = EDGE_CURVE ( 'NONE', #137, #32, #225, .T. ) ;
#143 = ORIENTED_EDGE ( 'NONE', *, *, #151, .F. ) ;
#144 = ORIENTED_EDGE ( 'NONE', *, *, #174, .T. ) ;
#145 = DIRECTION ( 'NONE',  ( 1.000000000000000000, 0.0000000000000000000, 0.0000000000000000000 ) ) ;
#146 = DIRECTION ( 'NONE',  ( -1.000000000000000000, 0.0000000000000000000, 0.0000000000000000000 ) ) ;
#147 = ORIENTED_EDGE ( 'NONE', *, *, #171, .T. ) ;
#148 = DIRECTION ( 'NONE',  ( 1.000000000000000000, 0.0000000000000000000, 0.0000000000000000000 ) ) ;
#149 = LINE ( 'NONE', #104, #106 ) ;
#150 = VERTEX_POINT ( 'NONE', #9 ) ;
#151 = EDGE_CURVE ( 'NONE', #103, #107, #149, .T. ) ;
#152 = CARTESIAN_POINT ( 'NONE',  ( 12.50000000000000533, 12.49999999999999822, 3.000000000000000000 ) ) ;
#153 = CALENDAR_DATE ( 2020, 19, 10 ) ;
#154 = DIRECTION ( 'NONE',  ( 1.000000000000000000, 1.387778780781445429E-16, 0.0000000000000000000 ) ) ;
#155 = DIRECTION ( 'NONE',  ( -1.387778780781445429E-16, 1.000000000000000000, 0.0000000000000000000 ) ) ;
#156 = DIRECTION ( 'NONE',  ( 0.0000000000000000000, 1.000000000000000000, 0.0000000000000000000 ) ) ;
#157 = EDGE_CURVE ( 'NONE', #232, #17, #6, .T. ) ;
#158 = COORDINATED_UNIVERSAL_TIME_OFFSET ( 5, 0, .BEHIND. ) ;
#159 = LINE ( 'NONE', #33, #186 ) ;
#160 = CALENDAR_DATE ( 2020, 19, 10 ) ;
#161 = ADVANCED_FACE ( 'NONE', ( #85 ), #202, .F. ) ;
#162 = LOCAL_TIME ( 11, 41, 25.00000000000000000, #25 ) ;
#163 = ORIENTED_EDGE ( 'NONE', *, *, #139, .F. ) ;
#164 = CC_DESIGN_SECURITY_CLASSIFICATION ( #44, ( #50 ) ) ;
#165 = APPROVAL_DATE_TIME ( #204, #218 ) ;
#166 = CARTESIAN_POINT ( 'NONE',  ( 0.0000000000000000000, 0.0000000000000000000, 0.0000000000000000000 ) ) ;
#167 = APPROVAL_ROLE ( '' ) ;
#168 = APPROVAL_PERSON_ORGANIZATION ( #58, #5, #167 ) ;
#169 = CLOSED_SHELL ( 'NONE', ( #161, #108, #234, #89, #15, #88 ) ) ;
#170 = FACE_OUTER_BOUND ( 'NONE', #91, .T. ) ;
#171 = EDGE_CURVE ( 'NONE', #17, #150, #206, .T. ) ;
#172 = ORIENTED_EDGE ( 'NONE', *, *, #109, .T. ) ;
#173 = DIRECTION ( 'NONE',  ( -0.0000000000000000000, -0.0000000000000000000, -1.000000000000000000 ) ) ;
#174 = EDGE_CURVE ( 'NONE', #150, #32, #133, .T. ) ;
#175 = LINE ( 'NONE', #138, #192 ) ;
#176 = UNCERTAINTY_MEASURE_WITH_UNIT (LENGTH_MEASURE( 1.000000000000000082E-05 ), #39, 'distance_accuracy_value', 'NONE');
#177 = DIRECTION ( 'NONE',  ( 1.000000000000000000, 1.387778780781445676E-16, -0.0000000000000000000 ) ) ;
#178 = EDGE_CURVE ( 'NONE', #32, #107, #37, .T. ) ;
#179 = VECTOR ( 'NONE', #94, 1000.000000000000000 ) ;
#180 = ORIENTED_EDGE ( 'NONE', *, *, #151, .T. ) ;
#181 = ORIENTED_EDGE ( 'NONE', *, *, #142, .T. ) ;
#182 = DIRECTION ( 'NONE',  ( -1.000000000000000000, -1.387778780781445676E-16, 0.0000000000000000000 ) ) ;
#183 = CARTESIAN_POINT ( 'NONE',  ( 12.50000000000000533, -12.50000000000000178, 3.000000000000000000 ) ) ;
#184 = ORIENTED_EDGE ( 'NONE', *, *, #195, .F. ) ;
#185 = APPLICATION_CONTEXT ( 'configuration controlled 3d designs of mechanical parts and assemblies' ) ;
#186 = VECTOR ( 'NONE', #156, 1000.000000000000000 ) ;
#187 = PERSON_AND_ORGANIZATION ( #112, #75 ) ;
#188 = CARTESIAN_POINT ( 'NONE',  ( 12.50000000000000533, 12.49999999999999822, 3.000000000000000000 ) ) ;
#189 = DIRECTION ( 'NONE',  ( 1.387778780781445429E-16, -1.000000000000000000, 0.0000000000000000000 ) ) ;
#190 = DIRECTION ( 'NONE',  ( 1.000000000000000000, 0.0000000000000000000, -0.0000000000000000000 ) ) ;
#191 = CC_DESIGN_PERSON_AND_ORGANIZATION_ASSIGNMENT ( #118, #24, ( #19 ) ) ;
#192 = VECTOR ( 'NONE', #64, 1000.000000000000000 ) ;
#193 = ORIENTED_EDGE ( 'NONE', *, *, #171, .F. ) ;
#194 = LOCAL_TIME ( 11, 41, 25.00000000000000000, #213 ) ;
#195 = EDGE_CURVE ( 'NONE', #29, #150, #36, .T. ) ;
#196 = ORIENTED_EDGE ( 'NONE', *, *, #34, .T. ) ;
#197 = AXIS2_PLACEMENT_3D ( 'NONE', #105, #47, #190 ) ;
#198 = CARTESIAN_POINT ( 'NONE',  ( 12.50000000000000533, 12.49999999999999822, -3.000000000000000000 ) ) ;
#199 = PERSON_AND_ORGANIZATION ( #112, #75 ) ;
#200 = APPROVAL_ROLE ( '' ) ;
#201 = CARTESIAN_POINT ( 'NONE',  ( 12.50000000000000533, -12.50000000000000178, -3.000000000000000000 ) ) ;
#202 = PLANE ( 'NONE',  #120 ) ;
#203 = PERSON_AND_ORGANIZATION_ROLE ( 'classification_officer' ) ;
#204 = DATE_AND_TIME ( #215, #68 ) ;
#205 = AXIS2_PLACEMENT_3D ( 'NONE', #166, #237, #148 ) ;
#206 = LINE ( 'NONE', #198, #61 ) ;
#207 = CARTESIAN_POINT ( 'NONE',  ( 12.50000000000000533, 12.49999999999999822, -3.000000000000000000 ) ) ;
#208 = CC_DESIGN_APPROVAL ( #135, ( #48 ) ) ;
#209 = CARTESIAN_POINT ( 'NONE',  ( 12.50000000000000533, -12.50000000000000178, -3.000000000000000000 ) ) ;
#210 = CALENDAR_DATE ( 2020, 19, 10 ) ;
#211 = EDGE_LOOP ( 'NONE', ( #219, #193, #222, #76 ) ) ;
#212 = DIRECTION ( 'NONE',  ( -1.000000000000000000, -1.387778780781445429E-16, 0.0000000000000000000 ) ) ;
#213 = COORDINATED_UNIVERSAL_TIME_OFFSET ( 5, 0, .BEHIND. ) ;
#214 = PRODUCT_DEFINITION_SHAPE ( 'NONE', 'NONE',  #48 ) ;
#215 = CALENDAR_DATE ( 2020, 19, 10 ) ;
#216 = MANIFOLD_SOLID_BREP ( 'Boss-Extrude1', #169 ) ;
#217 = VECTOR ( 'NONE', #173, 1000.000000000000000 ) ;
#218 = APPROVAL ( #131, 'UNSPECIFIED' ) ;
#219 = ORIENTED_EDGE ( 'NONE', *, *, #174, .F. ) ;
#220 = APPLICATION_PROTOCOL_DEFINITION ( 'international standard', 'config_control_design', 1994, #57 ) ;
#221 = DATE_TIME_ROLE ( 'creation_date' ) ;
#222 = ORIENTED_EDGE ( 'NONE', *, *, #109, .F. ) ;
#223 = DIRECTION ( 'NONE',  ( 0.0000000000000000000, -0.0000000000000000000, 1.000000000000000000 ) ) ;
#224 = CARTESIAN_POINT ( 'NONE',  ( 12.50000000000000533, -12.50000000000000178, 3.000000000000000000 ) ) ;
#225 = LINE ( 'NONE', #123, #217 ) ;
#226 = DIRECTION ( 'NONE',  ( 0.0000000000000000000, 1.000000000000000000, 0.0000000000000000000 ) ) ;
#227 = CARTESIAN_POINT ( 'NONE',  ( 12.50000000000000533, -12.50000000000000178, 3.000000000000000000 ) ) ;
#228 = FACE_OUTER_BOUND ( 'NONE', #92, .T. ) ;
#229 = CARTESIAN_POINT ( 'NONE',  ( 12.50000000000000533, 12.49999999999999822, 3.000000000000000000 ) ) ;
#230 = CC_DESIGN_DATE_AND_TIME_ASSIGNMENT ( #53, #41, ( #44 ) ) ;
#231 = FACE_OUTER_BOUND ( 'NONE', #134, .T. ) ;
#232 = VERTEX_POINT ( 'NONE', #4 ) ;
#233 = PRODUCT_RELATED_PRODUCT_CATEGORY ( 'detail', '', ( #19 ) ) ;
#234 = ADVANCED_FACE ( 'NONE', ( #231 ), #116, .F. ) ;
#235 = VECTOR ( 'NONE', #177, 1000.000000000000000 ) ;
#236 = ORIENTED_EDGE ( 'NONE', *, *, #14, .T. ) ;
#237 = DIRECTION ( 'NONE',  ( 0.0000000000000000000, 0.0000000000000000000, 1.000000000000000000 ) ) ;
ENDSEC;
END-ISO-10303-21;
