ISO-10303-21;
HEADER;
FILE_DESCRIPTION (( 'STEP AP203' ),
    '1' );
FILE_NAME ('TTN049369-E0W.STEP',
    '2016-07-25T14:35:49',
    ( 'admin' ),
    ( '' ),
    'SwSTEP 2.0',
    'SolidWorks 2016',
    '' );
FILE_SCHEMA (( 'CONFIG_CONTROL_DESIGN' ));
ENDSEC;

DATA;
#1 = CC_DESIGN_PERSON_AND_ORGANIZATION_ASSIGNMENT ( #139, #199, ( #244 ) ) ;
#2 = ORIENTED_EDGE ( 'NONE', *, *, #274, .F. ) ;
#3 = EDGE_LOOP ( 'NONE', ( #246, #67, #49 ) ) ;
#4 = SPHERICAL_SURFACE ( 'NONE', #120, 3.003897637795276000 ) ;
#5 = AXIS2_PLACEMENT_3D ( 'NONE', #131, #290, #152 ) ;
#6 = DIRECTION ( 'NONE',  ( 0.0000000000000000000, -1.000000000000000000, -3.073328992872296400E-016 ) ) ;
#7 = COORDINATED_UNIVERSAL_TIME_OFFSET ( 5, 0, .BEHIND. ) ;
#8 = CARTESIAN_POINT ( 'NONE',  ( 0.0000000000000000000, 9.160441229380529900E-019, -0.05236220472440964600 ) ) ;
#9 = CARTESIAN_POINT ( 'NONE',  ( 0.0000000000000000000, 0.5000000000000000000, -0.05236220472440949300 ) ) ;
#10 = LENGTH_MEASURE_WITH_UNIT ( LENGTH_MEASURE( 0.02539999999999999900 ), #271 );
#11 = ORIENTED_EDGE ( 'NONE', *, *, #232, .F. ) ;
#12 = CARTESIAN_POINT ( 'NONE',  ( 0.0000000000000000000, 0.0000000000000000000, 0.0000000000000000000 ) ) ;
#13 = ADVANCED_FACE ( 'NONE', ( #261 ), #84, .T. ) ;
#14 = EDGE_CURVE ( 'NONE', #204, #185, #250, .T. ) ;
#15 = APPROVAL_STATUS ( 'not_yet_approved' ) ;
#16 = EDGE_LOOP ( 'NONE', ( #103, #83, #252, #161 ) ) ;
#17 = VECTOR ( 'NONE', #124, 39.37007874015748100 ) ;
#18 = DATE_AND_TIME ( #32, #42 ) ;
#19 = ORIENTED_EDGE ( 'NONE', *, *, #284, .F. ) ;
#20 = VERTEX_POINT ( 'NONE', #267 ) ;
#21 = DATE_AND_TIME ( #81, #248 ) ;
#22 = CIRCLE ( 'NONE', #280, 0.5000000000000000000 ) ;
#23 = ORIENTED_EDGE ( 'NONE', *, *, #272, .F. ) ;
#24 = SECURITY_CLASSIFICATION ( '', '', #115 ) ;
#25 = DIRECTION ( 'NONE',  ( -0.0000000000000000000, 3.061515884555942700E-016, -1.000000000000000000 ) ) ;
#26 = AXIS2_PLACEMENT_3D ( 'NONE', #36, #190, #192 ) ;
#27 = COORDINATED_UNIVERSAL_TIME_OFFSET ( 5, 0, .BEHIND. ) ;
#28 = LINE ( 'NONE', #80, #277 ) ;
#29 = EDGE_CURVE ( 'NONE', #20, #204, #28, .T. ) ;
#30 = CARTESIAN_POINT ( 'NONE',  ( 6.075019554825452300E-017, 0.4921259842519684100, -0.06023622047244087100 ) ) ;
#31 = CARTESIAN_POINT ( 'NONE',  ( 0.0000000000000000000, 3.326686551722201300E-018, -0.06023622047244094800 ) ) ;
#32 = CALENDAR_DATE ( 2016, 25, 7 ) ;
#33 = DIRECTION ( 'NONE',  ( -0.0000000000000000000, 3.061515884555942700E-016, -1.000000000000000000 ) ) ;
#34 = DIRECTION ( 'NONE',  ( 0.0000000000000000000, 1.000000000000000000, 3.073328992872296400E-016 ) ) ;
#35 = DIRECTION ( 'NONE',  ( 1.000000000000000000, 0.0000000000000000000, -0.0000000000000000000 ) ) ;
#36 = CARTESIAN_POINT ( 'NONE',  ( 0.0000000000000000000, 3.326686551722225100E-018, -0.06023622047244103100 ) ) ;
#37 = FACE_OUTER_BOUND ( 'NONE', #268, .T. ) ;
#38 = FACE_OUTER_BOUND ( 'NONE', #3, .T. ) ;
#39 = ADVANCED_FACE ( 'NONE', ( #219 ), #162, .T. ) ;
#40 = PERSON_AND_ORGANIZATION_ROLE ( 'creator' ) ;
#41 = CC_DESIGN_PERSON_AND_ORGANIZATION_ASSIGNMENT ( #147, #298, ( #24 ) ) ;
#42 = LOCAL_TIME ( 10, 35, 49.00000000000000000, #7 ) ;
#43 = AXIS2_PLACEMENT_3D ( 'NONE', #132, #291, #153 ) ;
#44 = ORIENTED_EDGE ( 'NONE', *, *, #206, .T. ) ;
#45 = FACE_OUTER_BOUND ( 'NONE', #123, .T. ) ;
#46 = ORIENTED_EDGE ( 'NONE', *, *, #300, .F. ) ;
#47 = LINE ( 'NONE', #174, #138 ) ;
#48 = EDGE_CURVE ( 'NONE', #122, #185, #288, .T. ) ;
#49 = ORIENTED_EDGE ( 'NONE', *, *, #232, .T. ) ;
#50 = LINE ( 'NONE', #289, #196 ) ;
#51 = DIRECTION ( 'NONE',  ( 0.0000000000000000000, -3.061515884555943100E-016, 1.000000000000000000 ) ) ;
#52 = CC_DESIGN_DATE_AND_TIME_ASSIGNMENT ( #21, #99, ( #24 ) ) ;
#53 = DIRECTION ( 'NONE',  ( 0.0000000000000000000, 1.000000000000000000, 3.073328992872296400E-016 ) ) ;
#54 = LINE ( 'NONE', #221, #114 ) ;
#55 = ORIENTED_EDGE ( 'NONE', *, *, #272, .T. ) ;
#56 = AXIS2_PLACEMENT_3D ( 'NONE', #88, #241, #109 ) ;
#57 = CARTESIAN_POINT ( 'NONE',  ( 0.0000000000000000000, 9.160441229380529900E-019, -0.05236220472440964600 ) ) ;
#58 = DIRECTION ( 'NONE',  ( 1.000000000000000000, 1.224646799147353200E-016, 3.749275628560213100E-032 ) ) ;
#59 = VERTEX_POINT ( 'NONE', #211 ) ;
#60 = CARTESIAN_POINT ( 'NONE',  ( 0.0000000000000000000, 0.5000000000000000000, 0.01045731140911269500 ) ) ;
#61 = DIRECTION ( 'NONE',  ( 0.0000000000000000000, 1.000000000000000000, 3.637737796777010200E-016 ) ) ;
#62 = DATE_AND_TIME ( #180, #299 ) ;
#63 = DIRECTION ( 'NONE',  ( 1.000000000000000000, 0.0000000000000000000, 0.0000000000000000000 ) ) ;
#64 = AXIS2_PLACEMENT_3D ( 'NONE', #235, #51, #149 ) ;
#65 = DIMENSIONAL_EXPONENTS ( 1.000000000000000000, 0.0000000000000000000, 0.0000000000000000000, 0.0000000000000000000, 0.0000000000000000000, 0.0000000000000000000, 0.0000000000000000000 ) ;
#66 = ORIENTED_EDGE ( 'NONE', *, *, #258, .F. ) ;
#67 = ORIENTED_EDGE ( 'NONE', *, *, #253, .T. ) ;
#68 = PERSON_AND_ORGANIZATION ( #257, #142 ) ;
#69 = PERSON_AND_ORGANIZATION ( #257, #142 ) ;
#70 = APPROVAL ( #259, 'UNSPECIFIED' ) ;
#71 =( GEOMETRIC_REPRESENTATION_CONTEXT ( 3 ) GLOBAL_UNCERTAINTY_ASSIGNED_CONTEXT ( ( #249 ) ) GLOBAL_UNIT_ASSIGNED_CONTEXT ( ( #133, #293, #155 ) ) REPRESENTATION_CONTEXT ( 'NONE', 'WORKASPACE' ) );
#72 = CARTESIAN_POINT ( 'NONE',  ( 0.0000000000000000000, 0.4922461162248517600, 0.01962979000282844300 ) ) ;
#73 = APPROVAL_DATE_TIME ( #18, #260 ) ;
#74 = ORIENTED_EDGE ( 'NONE', *, *, #302, .T. ) ;
#75 = APPROVAL_PERSON_ORGANIZATION ( #69, #70, #118 ) ;
#76 = AXIS2_PLACEMENT_3D ( 'NONE', #57, #188, #170 ) ;
#77 = CYLINDRICAL_SURFACE ( 'NONE', #201, 0.5000000000000000000 ) ;
#78 = DIRECTION ( 'NONE',  ( 0.0000000000000000000, 1.000000000000000000, 3.073328992872296400E-016 ) ) ;
#79 = CARTESIAN_POINT ( 'NONE',  ( 0.0000000000000000000, -5.729132394403083000E-016, 0.01962979000282836700 ) ) ;
#80 = CARTESIAN_POINT ( 'NONE',  ( 6.123233995736766000E-017, -0.5000000000000000000, -0.06023622047244110700 ) ) ;
#81 = CALENDAR_DATE ( 2016, 25, 7 ) ;
#82 = DIRECTION ( 'NONE',  ( 0.0000000000000000000, 1.000000000000000000, 3.637737796777010200E-016 ) ) ;
#83 = ORIENTED_EDGE ( 'NONE', *, *, #300, .T. ) ;
#84 = CONICAL_SURFACE ( 'NONE', #64, 0.4921259842519684100, 0.7853981633974613800 ) ;
#85 = DIRECTION ( 'NONE',  ( 0.0000000000000000000, -3.061515884555932800E-016, 1.000000000000000000 ) ) ;
#86 = DIRECTION ( 'NONE',  ( 7.906086733161913200E-017, -0.6455809739319481300, -0.7636918266533152500 ) ) ;
#87 = CIRCLE ( 'NONE', #297, 0.4922461162248507600 ) ;
#88 = CARTESIAN_POINT ( 'NONE',  ( 0.0000000000000000000, 3.326686551722223600E-018, -0.06023622047244103100 ) ) ;
#89 = PERSON_AND_ORGANIZATION_ROLE ( 'design_owner' ) ;
#90 = CC_DESIGN_APPROVAL ( #70, ( #24 ) ) ;
#91 = APPROVAL_DATE_TIME ( #281, #181 ) ;
#92 = MANIFOLD_SOLID_BREP ( 'TTN049370-1-solid1', #239 ) ;
#93 = EDGE_LOOP ( 'NONE', ( #184, #2, #74, #66 ) ) ;
#94 = CIRCLE ( 'NONE', #56, 0.4921259842519684100 ) ;
#95 = AXIS2_PLACEMENT_3D ( 'NONE', #146, #126, #287 ) ;
#96 = PERSON_AND_ORGANIZATION ( #257, #142 ) ;
#97 = DIRECTION ( 'NONE',  ( 0.0000000000000000000, 1.000000000000000000, 3.073328992872296400E-016 ) ) ;
#98 = ORIENTED_EDGE ( 'NONE', *, *, #227, .F. ) ;
#99 = DATE_TIME_ROLE ( 'classification_date' ) ;
#100 = CC_DESIGN_SECURITY_CLASSIFICATION ( #24, ( #244 ) ) ;
#101 = APPROVAL_PERSON_ORGANIZATION ( #265, #181, #135 ) ;
#102 = CARTESIAN_POINT ( 'NONE',  ( 6.026805113914138600E-017, 0.4921259842519684100, -0.06023622047244087100 ) ) ;
#103 = ORIENTED_EDGE ( 'NONE', *, *, #29, .F. ) ;
#104 = DIRECTION ( 'NONE',  ( 0.0000000000000000000, 1.000000000000000000, 3.035025208513206800E-016 ) ) ;
#105 = CARTESIAN_POINT ( 'NONE',  ( 0.0000000000000000000, 3.343030707389362800E-016, -2.943661417322834600 ) ) ;
#106 = CARTESIAN_POINT ( 'NONE',  ( 6.123233995736766000E-017, -0.5000000000000000000, -0.05236220472440979900 ) ) ;
#107 = CARTESIAN_POINT ( 'NONE',  ( 6.123233995736764800E-017, -0.5000000000000000000, 0.01045731140911238800 ) ) ;
#108 = CARTESIAN_POINT ( 'NONE',  ( 6.028276306274813700E-017, -0.4922461162248528100, 0.01962979000282829100 ) ) ;
#109 = DIRECTION ( 'NONE',  ( 0.0000000000000000000, 1.000000000000000000, 3.122502256758253800E-016 ) ) ;
#110 = APPLICATION_PROTOCOL_DEFINITION ( 'international standard', 'config_control_design', 1994, #243 ) ;
#111 = ADVANCED_FACE ( 'NONE', ( #231 ), #200, .T. ) ;
#112 = AXIS2_PLACEMENT_3D ( 'NONE', #187, #263, #53 ) ;
#113 = PRODUCT_RELATED_PRODUCT_CATEGORY ( 'detail', '', ( #166 ) ) ;
#114 = VECTOR ( 'NONE', #176, 39.37007874015748100 ) ;
#115 = SECURITY_CLASSIFICATION_LEVEL ( 'unclassified' ) ;
#116 = APPROVAL_DATE_TIME ( #62, #70 ) ;
#117 = DESIGN_CONTEXT ( 'detailed design', #243, 'design' ) ;
#118 = APPROVAL_ROLE ( '' ) ;
#119 = FACE_OUTER_BOUND ( 'NONE', #163, .T. ) ;
#120 = AXIS2_PLACEMENT_3D ( 'NONE', #236, #270, #82 ) ;
#121 = CIRCLE ( 'NONE', #43, 0.5000000000000000000 ) ;
#122 = VERTEX_POINT ( 'NONE', #30 ) ;
#123 = EDGE_LOOP ( 'NONE', ( #136, #171, #55 ) ) ;
#124 = DIRECTION ( 'NONE',  ( 8.659560562355047500E-017, 0.7071067811865565700, 0.7071067811865385800 ) ) ;
#125 = DIRECTION ( 'NONE',  ( 0.0000000000000000000, 1.000000000000000000, 3.061515884555942700E-016 ) ) ;
#126 = DIRECTION ( 'NONE',  ( -0.0000000000000000000, 3.061515884555932800E-016, -1.000000000000000000 ) ) ;
#127 = ORIENTED_EDGE ( 'NONE', *, *, #274, .T. ) ;
#128 = DATE_AND_TIME ( #203, #207 ) ;
#129 = DIRECTION ( 'NONE',  ( 0.0000000000000000000, 0.0000000000000000000, 1.000000000000000000 ) ) ;
#130 = CARTESIAN_POINT ( 'NONE',  ( 0.0000000000000000000, -0.4921259842519684100, -0.06023622047244118300 ) ) ;
#131 = CARTESIAN_POINT ( 'NONE',  ( 0.0000000000000000000, 3.326686551722223600E-018, -0.06023622047244103100 ) ) ;
#132 = CARTESIAN_POINT ( 'NONE',  ( 0.0000000000000000000, -1.831625052735159700E-017, 0.01045731140911254100 ) ) ;
#133 =( CONVERSION_BASED_UNIT ( 'INCH', #10 ) LENGTH_UNIT ( ) NAMED_UNIT ( #65 ) );
#134 = ADVANCED_FACE ( 'NONE', ( #151 ), #141, .T. ) ;
#135 = APPROVAL_ROLE ( '' ) ;
#136 = ORIENTED_EDGE ( 'NONE', *, *, #253, .F. ) ;
#137 = AXIS2_PLACEMENT_3D ( 'NONE', #12, #240, #63 ) ;
#138 = VECTOR ( 'NONE', #264, 39.37007874015748900 ) ;
#139 = PERSON_AND_ORGANIZATION ( #257, #142 ) ;
#140 = AXIS2_PLACEMENT_3D ( 'NONE', #79, #234, #104 ) ;
#141 = CYLINDRICAL_SURFACE ( 'NONE', #159, 0.5000000000000000000 ) ;
#142 = ORGANIZATION ( 'UNSPECIFIED', 'UNSPECIFIED', '' ) ;
#143 = ORIENTED_EDGE ( 'NONE', *, *, #227, .T. ) ;
#144 = ORIENTED_EDGE ( 'NONE', *, *, #29, .T. ) ;
#145 = DIRECTION ( 'NONE',  ( -0.0000000000000000000, 3.061515884555932800E-016, -1.000000000000000000 ) ) ;
#146 = CARTESIAN_POINT ( 'NONE',  ( 0.0000000000000000000, -1.831625052735159700E-017, 0.01045731140911254100 ) ) ;
#147 = PERSON_AND_ORGANIZATION ( #257, #142 ) ;
#148 = CC_DESIGN_PERSON_AND_ORGANIZATION_ASSIGNMENT ( #68, #89, ( #166 ) ) ;
#149 = DIRECTION ( 'NONE',  ( 0.0000000000000000000, -1.000000000000000000, -3.122502256758253800E-016 ) ) ;
#150 = EDGE_LOOP ( 'NONE', ( #23, #165, #98, #233 ) ) ;
#151 = FACE_OUTER_BOUND ( 'NONE', #16, .T. ) ;
#152 = DIRECTION ( 'NONE',  ( 0.0000000000000000000, 1.000000000000000000, 3.122502256758253800E-016 ) ) ;
#153 = DIRECTION ( 'NONE',  ( 0.0000000000000000000, -1.000000000000000000, -3.073328992872296400E-016 ) ) ;
#154 = ORIENTED_EDGE ( 'NONE', *, *, #14, .F. ) ;
#155 =( NAMED_UNIT ( * ) SI_UNIT ( $, .STERADIAN. ) SOLID_ANGLE_UNIT ( ) );
#156 = ADVANCED_FACE ( 'NONE', ( #45 ), #4, .T. ) ;
#157 = VERTEX_POINT ( 'NONE', #130 ) ;
#158 = DATE_TIME_ROLE ( 'creation_date' ) ;
#159 = AXIS2_PLACEMENT_3D ( 'NONE', #31, #216, #78 ) ;
#160 = COORDINATED_UNIVERSAL_TIME_OFFSET ( 5, 0, .BEHIND. ) ;
#161 = ORIENTED_EDGE ( 'NONE', *, *, #258, .T. ) ;
#162 = CONICAL_SURFACE ( 'NONE', #95, 0.5000000000000000000, 0.7017837827883993700 ) ;
#163 = EDGE_LOOP ( 'NONE', ( #127, #217 ) ) ;
#164 = CIRCLE ( 'NONE', #262, 3.003897637795276000 ) ;
#165 = ORIENTED_EDGE ( 'NONE', *, *, #222, .T. ) ;
#166 = PRODUCT ( 'TTN049369-E0W', 'TTN049369-E0W', '', ( #223 ) ) ;
#167 = PRODUCT_DEFINITION ( 'UNKNOWN', '', #244, #117 ) ;
#168 = AXIS2_PLACEMENT_3D ( 'NONE', #191, #35, #61 ) ;
#169 = PLANE ( 'NONE',  #247 ) ;
#170 = DIRECTION ( 'NONE',  ( 0.0000000000000000000, 1.000000000000000000, 3.073328992872296400E-016 ) ) ;
#171 = ORIENTED_EDGE ( 'NONE', *, *, #251, .T. ) ;
#172 = ORIENTED_EDGE ( 'NONE', *, *, #222, .F. ) ;
#173 = DIRECTION ( 'NONE',  ( 0.0000000000000000000, -3.061515884555943100E-016, 1.000000000000000000 ) ) ;
#174 = CARTESIAN_POINT ( 'NONE',  ( 0.0000000000000000000, 0.5000000000000000000, 0.01045731140911269500 ) ) ;
#175 = DIRECTION ( 'NONE',  ( -0.0000000000000000000, 3.061515884555942700E-016, -1.000000000000000000 ) ) ;
#176 = DIRECTION ( 'NONE',  ( 0.0000000000000000000, -0.7071067811865570100, 0.7071067811865381400 ) ) ;
#177 = APPLICATION_PROTOCOL_DEFINITION ( 'international standard', 'config_control_design', 1994, #194 ) ;
#178 = APPROVAL_ROLE ( '' ) ;
#179 = COORDINATED_UNIVERSAL_TIME_OFFSET ( 5, 0, .BEHIND. ) ;
#180 = CALENDAR_DATE ( 2016, 25, 7 ) ;
#181 = APPROVAL ( #273, 'UNSPECIFIED' ) ;
#182 = CIRCLE ( 'NONE', #140, 0.4922461162248507600 ) ;
#183 = AXIS2_PLACEMENT_3D ( 'NONE', #286, #145, #6 ) ;
#184 = ORIENTED_EDGE ( 'NONE', *, *, #48, .F. ) ;
#185 = VERTEX_POINT ( 'NONE', #9 ) ;
#186 = CIRCLE ( 'NONE', #5, 0.4921259842519684100 ) ;
#187 = CARTESIAN_POINT ( 'NONE',  ( 0.0000000000000000000, -1.831625052735159700E-017, 0.01045731140911254100 ) ) ;
#188 = DIRECTION ( 'NONE',  ( 0.0000000000000000000, -3.061515884555943100E-016, 1.000000000000000000 ) ) ;
#189 = CARTESIAN_POINT ( 'NONE',  ( 0.0000000000000000000, 3.343030707389362800E-016, -2.943661417322834600 ) ) ;
#190 = DIRECTION ( 'NONE',  ( 0.0000000000000000000, -3.061515884555943100E-016, 1.000000000000000000 ) ) ;
#191 = CARTESIAN_POINT ( 'NONE',  ( 0.0000000000000000000, 3.343030707389362800E-016, -2.943661417322834600 ) ) ;
#192 = DIRECTION ( 'NONE',  ( 0.0000000000000000000, -1.000000000000000000, -3.122502256758253800E-016 ) ) ;
#193 = COORDINATED_UNIVERSAL_TIME_OFFSET ( 5, 0, .BEHIND. ) ;
#194 = APPLICATION_CONTEXT ( 'configuration controlled 3d designs of mechanical parts and assemblies' ) ;
#195 = CC_DESIGN_APPROVAL ( #181, ( #167 ) ) ;
#196 = VECTOR ( 'NONE', #175, 39.37007874015748100 ) ;
#197 = ADVANCED_FACE ( 'NONE', ( #38 ), #283, .T. ) ;
#198 = EDGE_LOOP ( 'NONE', ( #276, #214, #154, #256 ) ) ;
#199 = PERSON_AND_ORGANIZATION_ROLE ( 'design_supplier' ) ;
#200 = CONICAL_SURFACE ( 'NONE', #112, 0.5000000000000000000, 0.7017837827883993700 ) ;
#201 = AXIS2_PLACEMENT_3D ( 'NONE', #285, #25, #97 ) ;
#202 = VECTOR ( 'NONE', #86, 39.37007874015748900 ) ;
#203 = CALENDAR_DATE ( 2016, 25, 7 ) ;
#204 = VERTEX_POINT ( 'NONE', #106 ) ;
#205 = SHAPE_DEFINITION_REPRESENTATION ( #292, #220 ) ;
#206 = EDGE_CURVE ( 'NONE', #230, #278, #47, .T. ) ;
#207 = LOCAL_TIME ( 10, 35, 49.00000000000000000, #160 ) ;
#208 = EDGE_LOOP ( 'NONE', ( #172, #11, #44, #46 ) ) ;
#209 = CC_DESIGN_PERSON_AND_ORGANIZATION_ASSIGNMENT ( #96, #294, ( #167 ) ) ;
#210 = CIRCLE ( 'NONE', #226, 3.003897637795276000 ) ;
#211 = CARTESIAN_POINT ( 'NONE',  ( 0.0000000000000000000, -4.014092812754807300E-016, 0.06023622047244108600 ) ) ;
#212 = LOCAL_TIME ( 10, 35, 49.00000000000000000, #179 ) ;
#213 = CARTESIAN_POINT ( 'NONE',  ( 0.0000000000000000000, 3.326686551722224800E-018, -0.06023622047244103100 ) ) ;
#214 = ORIENTED_EDGE ( 'NONE', *, *, #48, .T. ) ;
#215 = DIRECTION ( 'NONE',  ( -1.224646799147353200E-016, 1.000000000000000000, 0.0000000000000000000 ) ) ;
#216 = DIRECTION ( 'NONE',  ( -0.0000000000000000000, 3.061515884555942700E-016, -1.000000000000000000 ) ) ;
#217 = ORIENTED_EDGE ( 'NONE', *, *, #303, .T. ) ;
#218 = CARTESIAN_POINT ( 'NONE',  ( 0.0000000000000000000, -5.729132394403083000E-016, 0.01962979000282836700 ) ) ;
#219 = FACE_OUTER_BOUND ( 'NONE', #150, .T. ) ;
#220 = ADVANCED_BREP_SHAPE_REPRESENTATION ( 'TTN049369-E0W', ( #92, #137 ), #71 ) ;
#221 = CARTESIAN_POINT ( 'NONE',  ( 0.0000000000000000000, -0.4921259842519684100, -0.06023622047244118300 ) ) ;
#222 = EDGE_CURVE ( 'NONE', #301, #20, #254, .T. ) ;
#223 = MECHANICAL_CONTEXT ( 'NONE', #194, 'mechanical' ) ;
#224 = ADVANCED_FACE ( 'NONE', ( #37 ), #77, .T. ) ;
#225 = CC_DESIGN_DATE_AND_TIME_ASSIGNMENT ( #128, #158, ( #167 ) ) ;
#226 = AXIS2_PLACEMENT_3D ( 'NONE', #189, #58, #215 ) ;
#227 = EDGE_CURVE ( 'NONE', #278, #20, #228, .T. ) ;
#228 = CIRCLE ( 'NONE', #183, 0.5000000000000000000 ) ;
#229 = CONICAL_SURFACE ( 'NONE', #26, 0.4921259842519684100, 0.7853981633974613800 ) ;
#230 = VERTEX_POINT ( 'NONE', #72 ) ;
#231 = FACE_OUTER_BOUND ( 'NONE', #208, .T. ) ;
#232 = EDGE_CURVE ( 'NONE', #230, #301, #182, .T. ) ;
#233 = ORIENTED_EDGE ( 'NONE', *, *, #206, .F. ) ;
#234 = DIRECTION ( 'NONE',  ( 0.0000000000000000000, -3.061515884555932800E-016, 1.000000000000000000 ) ) ;
#235 = CARTESIAN_POINT ( 'NONE',  ( 0.0000000000000000000, 3.326686551722225100E-018, -0.06023622047244103100 ) ) ;
#236 = CARTESIAN_POINT ( 'NONE',  ( 0.0000000000000000000, 3.343030707389362800E-016, -2.943661417322834600 ) ) ;
#237 = CALENDAR_DATE ( 2016, 25, 7 ) ;
#238 = DIRECTION ( 'NONE',  ( 0.0000000000000000000, 1.000000000000000000, 3.035025208513206800E-016 ) ) ;
#239 = CLOSED_SHELL ( 'NONE', ( #39, #13, #224, #156, #242, #197, #134, #296, #111 ) ) ;
#240 = DIRECTION ( 'NONE',  ( 0.0000000000000000000, 0.0000000000000000000, 1.000000000000000000 ) ) ;
#241 = DIRECTION ( 'NONE',  ( -0.0000000000000000000, 3.061515884555942700E-016, -1.000000000000000000 ) ) ;
#242 = ADVANCED_FACE ( 'NONE', ( #119 ), #169, .T. ) ;
#243 = APPLICATION_CONTEXT ( 'configuration controlled 3d designs of mechanical parts and assemblies' ) ;
#244 = PRODUCT_DEFINITION_FORMATION_WITH_SPECIFIED_SOURCE ( 'ANY', '', #166, .NOT_KNOWN. ) ;
#245 = FACE_OUTER_BOUND ( 'NONE', #93, .T. ) ;
#246 = ORIENTED_EDGE ( 'NONE', *, *, #251, .F. ) ;
#247 = AXIS2_PLACEMENT_3D ( 'NONE', #213, #266, #125 ) ;
#248 = LOCAL_TIME ( 10, 35, 49.00000000000000000, #27 ) ;
#249 = UNCERTAINTY_MEASURE_WITH_UNIT (LENGTH_MEASURE( 1.000000000000000100E-005 ), #133, 'distance_accuracy_value', 'NONE');
#250 = CIRCLE ( 'NONE', #76, 0.5000000000000000000 ) ;
#251 = EDGE_CURVE ( 'NONE', #59, #301, #210, .T. ) ;
#252 = ORIENTED_EDGE ( 'NONE', *, *, #284, .T. ) ;
#253 = EDGE_CURVE ( 'NONE', #59, #230, #164, .T. ) ;
#254 = LINE ( 'NONE', #107, #202 ) ;
#255 = PERSON_AND_ORGANIZATION ( #257, #142 ) ;
#256 = ORIENTED_EDGE ( 'NONE', *, *, #302, .F. ) ;
#257 = PERSON ( 'UNSPECIFIED', 'UNSPECIFIED', 'UNSPECIFIED', ('UNSPECIFIED'), ('UNSPECIFIED'), ('UNSPECIFIED') ) ;
#258 = EDGE_CURVE ( 'NONE', #185, #204, #22, .T. ) ;
#259 = APPROVAL_STATUS ( 'not_yet_approved' ) ;
#260 = APPROVAL ( #15, 'UNSPECIFIED' ) ;
#261 = FACE_OUTER_BOUND ( 'NONE', #198, .T. ) ;
#262 = AXIS2_PLACEMENT_3D ( 'NONE', #105, #269, #129 ) ;
#263 = DIRECTION ( 'NONE',  ( -0.0000000000000000000, 3.061515884555932800E-016, -1.000000000000000000 ) ) ;
#264 = DIRECTION ( 'NONE',  ( 0.0000000000000000000, 0.6455809739319485800, -0.7636918266533148100 ) ) ;
#265 = PERSON_AND_ORGANIZATION ( #257, #142 ) ;
#266 = DIRECTION ( 'NONE',  ( -0.0000000000000000000, 3.061515884555942700E-016, -1.000000000000000000 ) ) ;
#267 = CARTESIAN_POINT ( 'NONE',  ( 6.123233995736766000E-017, -0.5000000000000000000, 0.01045731140911238800 ) ) ;
#268 = EDGE_LOOP ( 'NONE', ( #143, #144, #282, #19 ) ) ;
#269 = DIRECTION ( 'NONE',  ( -1.000000000000000000, 0.0000000000000000000, 0.0000000000000000000 ) ) ;
#270 = DIRECTION ( 'NONE',  ( 1.000000000000000000, 0.0000000000000000000, -0.0000000000000000000 ) ) ;
#271 =( LENGTH_UNIT ( ) NAMED_UNIT ( * ) SI_UNIT ( $, .METRE. ) );
#272 = EDGE_CURVE ( 'NONE', #301, #230, #87, .T. ) ;
#273 = APPROVAL_STATUS ( 'not_yet_approved' ) ;
#274 = EDGE_CURVE ( 'NONE', #157, #122, #186, .T. ) ;
#275 = APPROVAL_PERSON_ORGANIZATION ( #255, #260, #178 ) ;
#276 = ORIENTED_EDGE ( 'NONE', *, *, #303, .F. ) ;
#277 = VECTOR ( 'NONE', #33, 39.37007874015748100 ) ;
#278 = VERTEX_POINT ( 'NONE', #60 ) ;
#279 = CC_DESIGN_APPROVAL ( #260, ( #244 ) ) ;
#280 = AXIS2_PLACEMENT_3D ( 'NONE', #8, #173, #34 ) ;
#281 = DATE_AND_TIME ( #237, #212 ) ;
#282 = ORIENTED_EDGE ( 'NONE', *, *, #14, .T. ) ;
#283 = SPHERICAL_SURFACE ( 'NONE', #168, 3.003897637795276000 ) ;
#284 = EDGE_CURVE ( 'NONE', #278, #185, #50, .T. ) ;
#285 = CARTESIAN_POINT ( 'NONE',  ( 0.0000000000000000000, 3.326686551722201300E-018, -0.06023622047244094800 ) ) ;
#286 = CARTESIAN_POINT ( 'NONE',  ( 0.0000000000000000000, -1.831625052735159700E-017, 0.01045731140911254100 ) ) ;
#287 = DIRECTION ( 'NONE',  ( 0.0000000000000000000, 1.000000000000000000, 3.073328992872296400E-016 ) ) ;
#288 = LINE ( 'NONE', #102, #17 ) ;
#289 = CARTESIAN_POINT ( 'NONE',  ( 0.0000000000000000000, 0.5000000000000000000, -0.06023622047244079500 ) ) ;
#290 = DIRECTION ( 'NONE',  ( -0.0000000000000000000, 3.061515884555942700E-016, -1.000000000000000000 ) ) ;
#291 = DIRECTION ( 'NONE',  ( -0.0000000000000000000, 3.061515884555932800E-016, -1.000000000000000000 ) ) ;
#292 = PRODUCT_DEFINITION_SHAPE ( 'NONE', 'NONE',  #167 ) ;
#293 =( NAMED_UNIT ( * ) PLANE_ANGLE_UNIT ( ) SI_UNIT ( $, .RADIAN. ) );
#294 = PERSON_AND_ORGANIZATION_ROLE ( 'creator' ) ;
#295 = CC_DESIGN_PERSON_AND_ORGANIZATION_ASSIGNMENT ( #304, #40, ( #244 ) ) ;
#296 = ADVANCED_FACE ( 'NONE', ( #245 ), #229, .T. ) ;
#297 = AXIS2_PLACEMENT_3D ( 'NONE', #218, #85, #238 ) ;
#298 = PERSON_AND_ORGANIZATION_ROLE ( 'classification_officer' ) ;
#299 = LOCAL_TIME ( 10, 35, 49.00000000000000000, #193 ) ;
#300 = EDGE_CURVE ( 'NONE', #20, #278, #121, .T. ) ;
#301 = VERTEX_POINT ( 'NONE', #108 ) ;
#302 = EDGE_CURVE ( 'NONE', #157, #204, #54, .T. ) ;
#303 = EDGE_CURVE ( 'NONE', #122, #157, #94, .T. ) ;
#304 = PERSON_AND_ORGANIZATION ( #257, #142 ) ;
ENDSEC;
END-ISO-10303-21;
