ISO-10303-21;
HEADER;
FILE_DESCRIPTION (( 'STEP AP203' ),
    '1' );
FILE_NAME ('Web Model 15403_15412.step',
    '2022-03-11T18:18:51',
    ( '' ),
    ( '' ),
    'SwSTEP 2.0',
    'SolidWorks 2021',
    '' );
FILE_SCHEMA (( 'CONFIG_CONTROL_DESIGN' ));
ENDSEC;

DATA;
#1 = ADVANCED_BREP_SHAPE_REPRESENTATION ( 'Web Model 15403_15412', ( #129, #57 ), #25 ) ;
#2 = ORIENTED_EDGE ( 'NONE', *, *, #146, .T. ) ;
#3 = UNCERTAINTY_MEASURE_WITH_UNIT (LENGTH_MEASURE( 1.000000000000000082E-05 ), #78, 'distance_accuracy_value', 'NONE');
#4 = ADVANCED_FACE ( 'NONE', ( #6 ), #63, .T. ) ;
#5 = DIRECTION ( 'NONE',  ( 1.000000000000000000, 0.000000000000000000, 0.000000000000000000 ) ) ;
#6 = FACE_OUTER_BOUND ( 'NONE', #92, .T. ) ;
#7 = CARTESIAN_POINT ( 'NONE',  ( -1.500000000000000000, 0.000000000000000000, 0.000000000000000000 ) ) ;
#8 = DESIGN_CONTEXT ( 'detailed design', #42, 'design' ) ;
#9 = CYLINDRICAL_SURFACE ( 'NONE', #98, 12.69999999999999929 ) ;
#10 = APPROVAL_ROLE ( '' ) ;
#11 = PERSON_AND_ORGANIZATION ( #58, #174 ) ;
#12 = ADVANCED_FACE ( 'NONE', ( #27 ), #67, .F. ) ;
#13 = CARTESIAN_POINT ( 'NONE',  ( 1.500000000000000000, 0.000000000000000000, 12.69999999999999929 ) ) ;
#14 = CARTESIAN_POINT ( 'NONE',  ( 1.500000000000000000, 0.000000000000000000, 0.000000000000000000 ) ) ;
#15 = AXIS2_PLACEMENT_3D ( 'NONE', #141, #119, #82 ) ;
#16 = SECURITY_CLASSIFICATION ( '', '', #111 ) ;
#17 = FACE_OUTER_BOUND ( 'NONE', #43, .T. ) ;
#18 = VECTOR ( 'NONE', #66, 1000.000000000000000 ) ;
#19 = APPROVAL_ROLE ( '' ) ;
#20 = COORDINATED_UNIVERSAL_TIME_OFFSET ( 5, 0, .BEHIND. ) ;
#21 = PERSON_AND_ORGANIZATION ( #58, #174 ) ;
#22 = PRODUCT ( 'Web Model 15403_15412', 'Web Model 15403_15412', '', ( #94 ) ) ;
#23 = AXIS2_PLACEMENT_3D ( 'NONE', #91, #49, #96 ) ;
#24 = CC_DESIGN_PERSON_AND_ORGANIZATION_ASSIGNMENT ( #159, #149, ( #22 ) ) ;
#25 =( GEOMETRIC_REPRESENTATION_CONTEXT ( 3 ) GLOBAL_UNCERTAINTY_ASSIGNED_CONTEXT ( ( #3 ) ) GLOBAL_UNIT_ASSIGNED_CONTEXT ( ( #78, #158, #31 ) ) REPRESENTATION_CONTEXT ( 'NONE', 'WORKASPACE' ) );
#26 = EDGE_CURVE ( 'NONE', #152, #28, #161, .T. ) ;
#27 = FACE_OUTER_BOUND ( 'NONE', #128, .T. ) ;
#28 = VERTEX_POINT ( 'NONE', #145 ) ;
#29 = FACE_OUTER_BOUND ( 'NONE', #45, .T. ) ;
#30 = ORIENTED_EDGE ( 'NONE', *, *, #175, .T. ) ;
#31 =( NAMED_UNIT ( * ) SI_UNIT ( $, .STERADIAN. ) SOLID_ANGLE_UNIT ( ) );
#32 = CLOSED_SHELL ( 'NONE', ( #109, #87, #4, #12 ) ) ;
#33 = LINE ( 'NONE', #142, #61 ) ;
#34 = LOCAL_TIME ( 13, 18, 51.00000000000000000, #85 ) ;
#35 = APPROVAL_DATE_TIME ( #99, #37 ) ;
#36 = APPROVAL_STATUS ( 'not_yet_approved' ) ;
#37 = APPROVAL ( #38, 'UNSPECIFIED' ) ;
#38 = APPROVAL_STATUS ( 'not_yet_approved' ) ;
#39 = CIRCLE ( 'NONE', #23, 12.69999999999999929 ) ;
#40 = APPROVAL ( #36, 'UNSPECIFIED' ) ;
#41 = LOCAL_TIME ( 13, 18, 51.00000000000000000, #20 ) ;
#42 = APPLICATION_CONTEXT ( 'configuration controlled 3d designs of mechanical parts and assemblies' ) ;
#43 = EDGE_LOOP ( 'NONE', ( #77, #105, #30, #162 ) ) ;
#44 = APPROVAL_PERSON_ORGANIZATION ( #11, #80, #134 ) ;
#45 = EDGE_LOOP ( 'NONE', ( #139, #76, #117, #59 ) ) ;
#46 = DIRECTION ( 'NONE',  ( -1.000000000000000000, -0.000000000000000000, -0.000000000000000000 ) ) ;
#47 = DIRECTION ( 'NONE',  ( 1.000000000000000000, 0.000000000000000000, 0.000000000000000000 ) ) ;
#48 = DIRECTION ( 'NONE',  ( 1.000000000000000000, 0.000000000000000000, 0.000000000000000000 ) ) ;
#49 = DIRECTION ( 'NONE',  ( 1.000000000000000000, 0.000000000000000000, 0.000000000000000000 ) ) ;
#50 = EDGE_CURVE ( 'NONE', #90, #164, #39, .T. ) ;
#51 = PERSON_AND_ORGANIZATION_ROLE ( 'creator' ) ;
#52 = COORDINATED_UNIVERSAL_TIME_OFFSET ( 5, 0, .BEHIND. ) ;
#53 = PERSON_AND_ORGANIZATION_ROLE ( 'design_supplier' ) ;
#54 = LOCAL_TIME ( 13, 18, 51.00000000000000000, #52 ) ;
#55 = PRODUCT_DEFINITION_SHAPE ( 'NONE', 'NONE',  #157 ) ;
#56 = CALENDAR_DATE ( 2022, 11, 3 ) ;
#57 = AXIS2_PLACEMENT_3D ( 'NONE', #120, #166, #48 ) ;
#58 = PERSON ( 'UNSPECIFIED', 'UNSPECIFIED', 'UNSPECIFIED', ('UNSPECIFIED'), ('UNSPECIFIED'), ('UNSPECIFIED') ) ;
#59 = ORIENTED_EDGE ( 'NONE', *, *, #175, .F. ) ;
#60 = APPROVAL_PERSON_ORGANIZATION ( #84, #40, #19 ) ;
#61 = VECTOR ( 'NONE', #46, 1000.000000000000000 ) ;
#62 = CARTESIAN_POINT ( 'NONE',  ( 1.500000000000000000, 1.555301434917138433E-15, -12.69999999999999929 ) ) ;
#63 = PLANE ( 'NONE',  #110 ) ;
#64 = DIRECTION ( 'NONE',  ( 0.000000000000000000, 0.000000000000000000, -1.000000000000000000 ) ) ;
#65 = CC_DESIGN_DATE_AND_TIME_ASSIGNMENT ( #71, #122, ( #157 ) ) ;
#66 = DIRECTION ( 'NONE',  ( -1.000000000000000000, -0.000000000000000000, -0.000000000000000000 ) ) ;
#67 = PLANE ( 'NONE',  #156 ) ;
#68 = PERSON_AND_ORGANIZATION ( #58, #174 ) ;
#69 = PERSON_AND_ORGANIZATION_ROLE ( 'classification_officer' ) ;
#70 = CIRCLE ( 'NONE', #130, 12.69999999999999929 ) ;
#71 = DATE_AND_TIME ( #137, #34 ) ;
#72 = COORDINATED_UNIVERSAL_TIME_OFFSET ( 5, 0, .BEHIND. ) ;
#73 = DATE_AND_TIME ( #56, #54 ) ;
#74 = LOCAL_TIME ( 13, 18, 51.00000000000000000, #72 ) ;
#75 = CC_DESIGN_PERSON_AND_ORGANIZATION_ASSIGNMENT ( #68, #69, ( #16 ) ) ;
#76 = ORIENTED_EDGE ( 'NONE', *, *, #116, .T. ) ;
#77 = ORIENTED_EDGE ( 'NONE', *, *, #116, .F. ) ;
#78 =( LENGTH_UNIT ( ) NAMED_UNIT ( * ) SI_UNIT ( .MILLI., .METRE. ) );
#79 = DIRECTION ( 'NONE',  ( 0.000000000000000000, 0.000000000000000000, -1.000000000000000000 ) ) ;
#80 = APPROVAL ( #102, 'UNSPECIFIED' ) ;
#81 = CARTESIAN_POINT ( 'NONE',  ( 1.500000000000000000, 0.000000000000000000, 0.000000000000000000 ) ) ;
#82 = DIRECTION ( 'NONE',  ( 0.000000000000000000, 0.000000000000000000, -1.000000000000000000 ) ) ;
#83 = SHAPE_DEFINITION_REPRESENTATION ( #55, #1 ) ;
#84 = PERSON_AND_ORGANIZATION ( #58, #174 ) ;
#85 = COORDINATED_UNIVERSAL_TIME_OFFSET ( 5, 0, .BEHIND. ) ;
#86 = APPROVAL_DATE_TIME ( #171, #80 ) ;
#87 = ADVANCED_FACE ( 'NONE', ( #17 ), #155, .T. ) ;
#88 = AXIS2_PLACEMENT_3D ( 'NONE', #14, #5, #64 ) ;
#89 = CC_DESIGN_APPROVAL ( #37, ( #16 ) ) ;
#90 = VERTEX_POINT ( 'NONE', #153 ) ;
#91 = CARTESIAN_POINT ( 'NONE',  ( 1.500000000000000000, 0.000000000000000000, 0.000000000000000000 ) ) ;
#92 = EDGE_LOOP ( 'NONE', ( #118, #2 ) ) ;
#93 = DIRECTION ( 'NONE',  ( 0.000000000000000000, 0.000000000000000000, -1.000000000000000000 ) ) ;
#94 = MECHANICAL_CONTEXT ( 'NONE', #123, 'mechanical' ) ;
#95 = CC_DESIGN_DATE_AND_TIME_ASSIGNMENT ( #136, #148, ( #16 ) ) ;
#96 = DIRECTION ( 'NONE',  ( 0.000000000000000000, 0.000000000000000000, -1.000000000000000000 ) ) ;
#97 = DIRECTION ( 'NONE',  ( 1.000000000000000000, 0.000000000000000000, 0.000000000000000000 ) ) ;
#98 = AXIS2_PLACEMENT_3D ( 'NONE', #165, #133, #121 ) ;
#99 = DATE_AND_TIME ( #124, #41 ) ;
#100 = EDGE_CURVE ( 'NONE', #28, #152, #70, .T. ) ;
#101 = PERSON_AND_ORGANIZATION ( #58, #174 ) ;
#102 = APPROVAL_STATUS ( 'not_yet_approved' ) ;
#103 = COORDINATED_UNIVERSAL_TIME_OFFSET ( 5, 0, .BEHIND. ) ;
#104 = LOCAL_TIME ( 13, 18, 51.00000000000000000, #103 ) ;
#105 = ORIENTED_EDGE ( 'NONE', *, *, #50, .F. ) ;
#106 = APPLICATION_PROTOCOL_DEFINITION ( 'international standard', 'config_control_design', 1994, #123 ) ;
#107 = LINE ( 'NONE', #13, #18 ) ;
#108 = CALENDAR_DATE ( 2022, 11, 3 ) ;
#109 = ADVANCED_FACE ( 'NONE', ( #29 ), #9, .T. ) ;
#110 = AXIS2_PLACEMENT_3D ( 'NONE', #154, #47, #79 ) ;
#111 = SECURITY_CLASSIFICATION_LEVEL ( 'unclassified' ) ;
#112 = CC_DESIGN_SECURITY_CLASSIFICATION ( #16, ( #144 ) ) ;
#113 = CC_DESIGN_APPROVAL ( #80, ( #157 ) ) ;
#114 = APPROVAL_DATE_TIME ( #73, #40 ) ;
#115 = ORIENTED_EDGE ( 'NONE', *, *, #26, .F. ) ;
#116 = EDGE_CURVE ( 'NONE', #164, #28, #33, .T. ) ;
#117 = ORIENTED_EDGE ( 'NONE', *, *, #100, .T. ) ;
#118 = ORIENTED_EDGE ( 'NONE', *, *, #50, .T. ) ;
#119 = DIRECTION ( 'NONE',  ( 1.000000000000000000, 0.000000000000000000, 0.000000000000000000 ) ) ;
#120 = CARTESIAN_POINT ( 'NONE',  ( 0.000000000000000000, 0.000000000000000000, 0.000000000000000000 ) ) ;
#121 = DIRECTION ( 'NONE',  ( 0.000000000000000000, 0.000000000000000000, 1.000000000000000000 ) ) ;
#122 = DATE_TIME_ROLE ( 'creation_date' ) ;
#123 = APPLICATION_CONTEXT ( 'configuration controlled 3d designs of mechanical parts and assemblies' ) ;
#124 = CALENDAR_DATE ( 2022, 11, 3 ) ;
#125 = APPROVAL_PERSON_ORGANIZATION ( #160, #37, #10 ) ;
#126 = CC_DESIGN_PERSON_AND_ORGANIZATION_ASSIGNMENT ( #21, #51, ( #157 ) ) ;
#127 = DIRECTION ( 'NONE',  ( 1.000000000000000000, 0.000000000000000000, 0.000000000000000000 ) ) ;
#128 = EDGE_LOOP ( 'NONE', ( #115, #140 ) ) ;
#129 = MANIFOLD_SOLID_BREP ( 'Boss-Extrude1', #32 ) ;
#130 = AXIS2_PLACEMENT_3D ( 'NONE', #7, #127, #93 ) ;
#131 = DIRECTION ( 'NONE',  ( 0.000000000000000000, 0.000000000000000000, -1.000000000000000000 ) ) ;
#132 = DIRECTION ( 'NONE',  ( 0.000000000000000000, 0.000000000000000000, 1.000000000000000000 ) ) ;
#133 = DIRECTION ( 'NONE',  ( -1.000000000000000000, -0.000000000000000000, -0.000000000000000000 ) ) ;
#134 = APPROVAL_ROLE ( '' ) ;
#135 = APPLICATION_PROTOCOL_DEFINITION ( 'international standard', 'config_control_design', 1994, #42 ) ;
#136 = DATE_AND_TIME ( #108, #104 ) ;
#137 = CALENDAR_DATE ( 2022, 11, 3 ) ;
#138 = CC_DESIGN_PERSON_AND_ORGANIZATION_ASSIGNMENT ( #150, #168, ( #144 ) ) ;
#139 = ORIENTED_EDGE ( 'NONE', *, *, #146, .F. ) ;
#140 = ORIENTED_EDGE ( 'NONE', *, *, #100, .F. ) ;
#141 = CARTESIAN_POINT ( 'NONE',  ( -1.500000000000000000, 0.000000000000000000, 0.000000000000000000 ) ) ;
#142 = CARTESIAN_POINT ( 'NONE',  ( 1.500000000000000000, 1.555301434917138433E-15, -12.69999999999999929 ) ) ;
#143 = DIRECTION ( 'NONE',  ( -1.000000000000000000, -0.000000000000000000, -0.000000000000000000 ) ) ;
#144 = PRODUCT_DEFINITION_FORMATION_WITH_SPECIFIED_SOURCE ( 'ANY', '', #22, .NOT_KNOWN. ) ;
#145 = CARTESIAN_POINT ( 'NONE',  ( -1.500000000000000000, 1.555301434917138433E-15, -12.69999999999999929 ) ) ;
#146 = EDGE_CURVE ( 'NONE', #164, #90, #147, .T. ) ;
#147 = CIRCLE ( 'NONE', #88, 12.69999999999999929 ) ;
#148 = DATE_TIME_ROLE ( 'classification_date' ) ;
#149 = PERSON_AND_ORGANIZATION_ROLE ( 'design_owner' ) ;
#150 = PERSON_AND_ORGANIZATION ( #58, #174 ) ;
#151 = PRODUCT_RELATED_PRODUCT_CATEGORY ( 'detail', '', ( #22 ) ) ;
#152 = VERTEX_POINT ( 'NONE', #167 ) ;
#153 = CARTESIAN_POINT ( 'NONE',  ( 1.500000000000000000, 0.000000000000000000, 12.69999999999999929 ) ) ;
#154 = CARTESIAN_POINT ( 'NONE',  ( 1.500000000000000000, 0.000000000000000000, 0.000000000000000000 ) ) ;
#155 = CYLINDRICAL_SURFACE ( 'NONE', #169, 12.69999999999999929 ) ;
#156 = AXIS2_PLACEMENT_3D ( 'NONE', #163, #97, #131 ) ;
#157 = PRODUCT_DEFINITION ( 'UNKNOWN', '', #144, #8 ) ;
#158 =( NAMED_UNIT ( * ) PLANE_ANGLE_UNIT ( ) SI_UNIT ( $, .RADIAN. ) );
#159 = PERSON_AND_ORGANIZATION ( #58, #174 ) ;
#160 = PERSON_AND_ORGANIZATION ( #58, #174 ) ;
#161 = CIRCLE ( 'NONE', #15, 12.69999999999999929 ) ;
#162 = ORIENTED_EDGE ( 'NONE', *, *, #26, .T. ) ;
#163 = CARTESIAN_POINT ( 'NONE',  ( -1.500000000000000000, 0.000000000000000000, 0.000000000000000000 ) ) ;
#164 = VERTEX_POINT ( 'NONE', #62 ) ;
#165 = CARTESIAN_POINT ( 'NONE',  ( 1.500000000000000000, 0.000000000000000000, 0.000000000000000000 ) ) ;
#166 = DIRECTION ( 'NONE',  ( 0.000000000000000000, 0.000000000000000000, 1.000000000000000000 ) ) ;
#167 = CARTESIAN_POINT ( 'NONE',  ( -1.500000000000000000, 0.000000000000000000, 12.69999999999999929 ) ) ;
#168 = PERSON_AND_ORGANIZATION_ROLE ( 'creator' ) ;
#169 = AXIS2_PLACEMENT_3D ( 'NONE', #81, #143, #132 ) ;
#170 = CALENDAR_DATE ( 2022, 11, 3 ) ;
#171 = DATE_AND_TIME ( #170, #74 ) ;
#172 = CC_DESIGN_APPROVAL ( #40, ( #144 ) ) ;
#173 = CC_DESIGN_PERSON_AND_ORGANIZATION_ASSIGNMENT ( #101, #53, ( #144 ) ) ;
#174 = ORGANIZATION ( 'UNSPECIFIED', 'UNSPECIFIED', '' ) ;
#175 = EDGE_CURVE ( 'NONE', #90, #152, #107, .T. ) ;
ENDSEC;
END-ISO-10303-21;
