ISO-10303-21;
HEADER;
FILE_DESCRIPTION (( 'STEP AP203' ),
    '1' );
FILE_NAME ('Web Model 43925_43925.step',
    '2017-04-24T19:33:50',
    ( '' ),
    ( '' ),
    'SwSTEP 2.0',
    'SolidWorks 2016',
    '' );
FILE_SCHEMA (( 'CONFIG_CONTROL_DESIGN' ));
ENDSEC;

DATA;
#1 = DIRECTION ( 'NONE',  ( 0.0000000000000000000, 0.0000000000000000000, 1.000000000000000000 ) ) ;
#2 = CYLINDRICAL_SURFACE ( 'NONE', #152, 38.10000000000000100 ) ;
#3 = PERSON_AND_ORGANIZATION ( #110, #49 ) ;
#4 = CIRCLE ( 'NONE', #89, 38.10000000000000100 ) ;
#5 = ADVANCED_FACE ( 'NONE', ( #14 ), #41, .T. ) ;
#6 = AXIS2_PLACEMENT_3D ( 'NONE', #143, #97, #26 ) ;
#7 = DIRECTION ( 'NONE',  ( -1.000000000000000000, 0.0000000000000000000, 0.0000000000000000000 ) ) ;
#8 = LINE ( 'NONE', #112, #38 ) ;
#9 = CARTESIAN_POINT ( 'NONE',  ( 0.0000000000000000000, 0.0000000000000000000, 0.7500000000000000000 ) ) ;
#10 = CALENDAR_DATE ( 2017, 24, 4 ) ;
#11 = CC_DESIGN_PERSON_AND_ORGANIZATION_ASSIGNMENT ( #158, #126, ( #36 ) ) ;
#12 = CC_DESIGN_DATE_AND_TIME_ASSIGNMENT ( #141, #174, ( #169 ) ) ;
#13 = PLANE ( 'NONE',  #6 ) ;
#14 = FACE_OUTER_BOUND ( 'NONE', #79, .T. ) ;
#15 = ORIENTED_EDGE ( 'NONE', *, *, #61, .F. ) ;
#16 = AXIS2_PLACEMENT_3D ( 'NONE', #21, #22, #106 ) ;
#17 = ORIENTED_EDGE ( 'NONE', *, *, #133, .F. ) ;
#18 = ORIENTED_EDGE ( 'NONE', *, *, #95, .F. ) ;
#19 = CARTESIAN_POINT ( 'NONE',  ( 0.0000000000000000000, 0.0000000000000000000, -0.7500000000000000000 ) ) ;
#20 = ORIENTED_EDGE ( 'NONE', *, *, #23, .T. ) ;
#21 = CARTESIAN_POINT ( 'NONE',  ( 0.0000000000000000000, 0.0000000000000000000, 0.0000000000000000000 ) ) ;
#22 = DIRECTION ( 'NONE',  ( 0.0000000000000000000, 0.0000000000000000000, 1.000000000000000000 ) ) ;
#23 = EDGE_CURVE ( 'NONE', #54, #167, #105, .T. ) ;
#24 = PERSON_AND_ORGANIZATION ( #110, #49 ) ;
#25 = ORIENTED_EDGE ( 'NONE', *, *, #133, .T. ) ;
#26 = DIRECTION ( 'NONE',  ( 1.000000000000000000, 0.0000000000000000000, -0.0000000000000000000 ) ) ;
#27 =( GEOMETRIC_REPRESENTATION_CONTEXT ( 3 ) GLOBAL_UNCERTAINTY_ASSIGNED_CONTEXT ( ( #128 ) ) GLOBAL_UNIT_ASSIGNED_CONTEXT ( ( #58, #156, #71 ) ) REPRESENTATION_CONTEXT ( 'NONE', 'WORKASPACE' ) );
#28 = CC_DESIGN_PERSON_AND_ORGANIZATION_ASSIGNMENT ( #3, #115, ( #146 ) ) ;
#29 = PERSON_AND_ORGANIZATION_ROLE ( 'creator' ) ;
#30 = CALENDAR_DATE ( 2017, 24, 4 ) ;
#31 = ADVANCED_BREP_SHAPE_REPRESENTATION ( 'Web Model 43925_43925', ( #168, #16 ), #27 ) ;
#32 = DIRECTION ( 'NONE',  ( 1.000000000000000000, 0.0000000000000000000, 0.0000000000000000000 ) ) ;
#33 = CARTESIAN_POINT ( 'NONE',  ( 0.0000000000000000000, 0.0000000000000000000, -0.7500000000000000000 ) ) ;
#34 = MECHANICAL_CONTEXT ( 'NONE', #96, 'mechanical' ) ;
#35 = COORDINATED_UNIVERSAL_TIME_OFFSET ( 5, 0, .BEHIND. ) ;
#36 = PRODUCT ( 'Web Model 43925_43925', 'Web Model 43925_43925', '', ( #34 ) ) ;
#37 = DIRECTION ( 'NONE',  ( -0.0000000000000000000, -0.0000000000000000000, -1.000000000000000000 ) ) ;
#38 = VECTOR ( 'NONE', #161, 1000.000000000000000 ) ;
#39 = COORDINATED_UNIVERSAL_TIME_OFFSET ( 5, 0, .BEHIND. ) ;
#40 = SECURITY_CLASSIFICATION_LEVEL ( 'unclassified' ) ;
#41 = CYLINDRICAL_SURFACE ( 'NONE', #142, 38.10000000000000100 ) ;
#42 = PERSON_AND_ORGANIZATION ( #110, #49 ) ;
#43 = CC_DESIGN_APPROVAL ( #170, ( #146 ) ) ;
#44 = CARTESIAN_POINT ( 'NONE',  ( 0.0000000000000000000, 0.0000000000000000000, 0.7500000000000000000 ) ) ;
#45 = DIRECTION ( 'NONE',  ( 1.000000000000000000, 0.0000000000000000000, 0.0000000000000000000 ) ) ;
#46 = EDGE_LOOP ( 'NONE', ( #111, #160, #90, #154 ) ) ;
#47 = APPLICATION_CONTEXT ( 'configuration controlled 3d designs of mechanical parts and assemblies' ) ;
#48 = DATE_AND_TIME ( #113, #173 ) ;
#49 = ORGANIZATION ( 'UNSPECIFIED', 'UNSPECIFIED', '' ) ;
#50 = ORIENTED_EDGE ( 'NONE', *, *, #23, .F. ) ;
#51 = CARTESIAN_POINT ( 'NONE',  ( 38.10000000000000100, 4.665904304751416100E-015, 0.7500000000000000000 ) ) ;
#52 = APPROVAL_PERSON_ORGANIZATION ( #114, #131, #157 ) ;
#53 = DATE_TIME_ROLE ( 'classification_date' ) ;
#54 = VERTEX_POINT ( 'NONE', #80 ) ;
#55 = APPROVAL_ROLE ( '' ) ;
#56 = LOCAL_TIME ( 15, 33, 50.00000000000000000, #88 ) ;
#57 = ADVANCED_FACE ( 'NONE', ( #75 ), #13, .F. ) ;
#58 =( LENGTH_UNIT ( ) NAMED_UNIT ( * ) SI_UNIT ( .MILLI., .METRE. ) );
#59 = DIRECTION ( 'NONE',  ( -0.0000000000000000000, -0.0000000000000000000, -1.000000000000000000 ) ) ;
#60 = APPROVAL_STATUS ( 'not_yet_approved' ) ;
#61 = EDGE_CURVE ( 'NONE', #167, #124, #101, .T. ) ;
#62 = CC_DESIGN_PERSON_AND_ORGANIZATION_ASSIGNMENT ( #24, #73, ( #169 ) ) ;
#63 = PERSON_AND_ORGANIZATION ( #110, #49 ) ;
#64 = APPROVAL_ROLE ( '' ) ;
#65 = DESIGN_CONTEXT ( 'detailed design', #47, 'design' ) ;
#66 = DIRECTION ( 'NONE',  ( -1.000000000000000000, 0.0000000000000000000, 0.0000000000000000000 ) ) ;
#67 = EDGE_CURVE ( 'NONE', #54, #163, #8, .T. ) ;
#68 = CALENDAR_DATE ( 2017, 24, 4 ) ;
#69 = DIRECTION ( 'NONE',  ( 0.0000000000000000000, 0.0000000000000000000, 1.000000000000000000 ) ) ;
#70 = DIRECTION ( 'NONE',  ( 1.000000000000000000, 0.0000000000000000000, -0.0000000000000000000 ) ) ;
#71 =( NAMED_UNIT ( * ) SI_UNIT ( $, .STERADIAN. ) SOLID_ANGLE_UNIT ( ) );
#72 = CIRCLE ( 'NONE', #121, 38.10000000000000100 ) ;
#73 = PERSON_AND_ORGANIZATION_ROLE ( 'creator' ) ;
#74 = CARTESIAN_POINT ( 'NONE',  ( 0.0000000000000000000, 0.0000000000000000000, 0.7500000000000000000 ) ) ;
#75 = FACE_OUTER_BOUND ( 'NONE', #116, .T. ) ;
#76 = ORIENTED_EDGE ( 'NONE', *, *, #67, .T. ) ;
#77 = AXIS2_PLACEMENT_3D ( 'NONE', #44, #69, #171 ) ;
#78 = CC_DESIGN_APPROVAL ( #131, ( #169 ) ) ;
#79 = EDGE_LOOP ( 'NONE', ( #15, #50, #76, #25 ) ) ;
#80 = CARTESIAN_POINT ( 'NONE',  ( -38.10000000000000100, 0.0000000000000000000, 0.7500000000000000000 ) ) ;
#81 = APPROVAL_DATE_TIME ( #159, #140 ) ;
#82 = CARTESIAN_POINT ( 'NONE',  ( 0.0000000000000000000, 0.0000000000000000000, 0.7500000000000000000 ) ) ;
#83 = CARTESIAN_POINT ( 'NONE',  ( 38.10000000000000100, 4.665904304751416100E-015, 0.7500000000000000000 ) ) ;
#84 = EDGE_LOOP ( 'NONE', ( #20, #92 ) ) ;
#85 = APPLICATION_PROTOCOL_DEFINITION ( 'international standard', 'config_control_design', 1994, #96 ) ;
#86 = EDGE_CURVE ( 'NONE', #167, #54, #149, .T. ) ;
#87 = APPROVAL_STATUS ( 'not_yet_approved' ) ;
#88 = COORDINATED_UNIVERSAL_TIME_OFFSET ( 5, 0, .BEHIND. ) ;
#89 = AXIS2_PLACEMENT_3D ( 'NONE', #19, #103, #32 ) ;
#90 = ORIENTED_EDGE ( 'NONE', *, *, #95, .T. ) ;
#91 = DIRECTION ( 'NONE',  ( 1.000000000000000000, 0.0000000000000000000, 0.0000000000000000000 ) ) ;
#92 = ORIENTED_EDGE ( 'NONE', *, *, #86, .T. ) ;
#93 = APPROVAL_DATE_TIME ( #120, #131 ) ;
#94 = APPROVAL_PERSON_ORGANIZATION ( #129, #140, #64 ) ;
#95 = EDGE_CURVE ( 'NONE', #124, #163, #4, .T. ) ;
#96 = APPLICATION_CONTEXT ( 'configuration controlled 3d designs of mechanical parts and assemblies' ) ;
#97 = DIRECTION ( 'NONE',  ( 0.0000000000000000000, 0.0000000000000000000, 1.000000000000000000 ) ) ;
#98 = FACE_OUTER_BOUND ( 'NONE', #84, .T. ) ;
#99 = CC_DESIGN_DATE_AND_TIME_ASSIGNMENT ( #48, #53, ( #151 ) ) ;
#100 = COORDINATED_UNIVERSAL_TIME_OFFSET ( 5, 0, .BEHIND. ) ;
#101 = LINE ( 'NONE', #51, #145 ) ;
#102 = APPROVAL_PERSON_ORGANIZATION ( #42, #170, #55 ) ;
#103 = DIRECTION ( 'NONE',  ( 0.0000000000000000000, 0.0000000000000000000, 1.000000000000000000 ) ) ;
#104 = ADVANCED_FACE ( 'NONE', ( #139 ), #2, .T. ) ;
#105 = CIRCLE ( 'NONE', #166, 38.10000000000000100 ) ;
#106 = DIRECTION ( 'NONE',  ( 1.000000000000000000, 0.0000000000000000000, 0.0000000000000000000 ) ) ;
#107 = CC_DESIGN_APPROVAL ( #140, ( #151 ) ) ;
#108 = LOCAL_TIME ( 15, 33, 50.00000000000000000, #100 ) ;
#109 = AXIS2_PLACEMENT_3D ( 'NONE', #82, #153, #70 ) ;
#110 = PERSON ( 'UNSPECIFIED', 'UNSPECIFIED', 'UNSPECIFIED', ('UNSPECIFIED'), ('UNSPECIFIED'), ('UNSPECIFIED') ) ;
#111 = ORIENTED_EDGE ( 'NONE', *, *, #86, .F. ) ;
#112 = CARTESIAN_POINT ( 'NONE',  ( -38.10000000000000100, 0.0000000000000000000, 0.7500000000000000000 ) ) ;
#113 = CALENDAR_DATE ( 2017, 24, 4 ) ;
#114 = PERSON_AND_ORGANIZATION ( #110, #49 ) ;
#115 = PERSON_AND_ORGANIZATION_ROLE ( 'design_supplier' ) ;
#116 = EDGE_LOOP ( 'NONE', ( #17, #18 ) ) ;
#117 = LOCAL_TIME ( 15, 33, 50.00000000000000000, #150 ) ;
#118 = CLOSED_SHELL ( 'NONE', ( #104, #5, #122, #57 ) ) ;
#119 = CC_DESIGN_PERSON_AND_ORGANIZATION_ASSIGNMENT ( #136, #132, ( #151 ) ) ;
#120 = DATE_AND_TIME ( #165, #56 ) ;
#121 = AXIS2_PLACEMENT_3D ( 'NONE', #33, #125, #45 ) ;
#122 = ADVANCED_FACE ( 'NONE', ( #98 ), #137, .T. ) ;
#123 = CARTESIAN_POINT ( 'NONE',  ( 38.10000000000000100, 4.665904304751416100E-015, -0.7500000000000000000 ) ) ;
#124 = VERTEX_POINT ( 'NONE', #123 ) ;
#125 = DIRECTION ( 'NONE',  ( 0.0000000000000000000, 0.0000000000000000000, 1.000000000000000000 ) ) ;
#126 = PERSON_AND_ORGANIZATION_ROLE ( 'design_owner' ) ;
#127 = CC_DESIGN_PERSON_AND_ORGANIZATION_ASSIGNMENT ( #63, #29, ( #146 ) ) ;
#128 = UNCERTAINTY_MEASURE_WITH_UNIT (LENGTH_MEASURE( 1.000000000000000100E-005 ), #58, 'distance_accuracy_value', 'NONE');
#129 = PERSON_AND_ORGANIZATION ( #110, #49 ) ;
#130 = CC_DESIGN_SECURITY_CLASSIFICATION ( #151, ( #146 ) ) ;
#131 = APPROVAL ( #60, 'UNSPECIFIED' ) ;
#132 = PERSON_AND_ORGANIZATION_ROLE ( 'classification_officer' ) ;
#133 = EDGE_CURVE ( 'NONE', #163, #124, #72, .T. ) ;
#134 = DATE_AND_TIME ( #68, #147 ) ;
#135 = SHAPE_DEFINITION_REPRESENTATION ( #155, #31 ) ;
#136 = PERSON_AND_ORGANIZATION ( #110, #49 ) ;
#137 = PLANE ( 'NONE',  #109 ) ;
#138 = APPLICATION_PROTOCOL_DEFINITION ( 'international standard', 'config_control_design', 1994, #47 ) ;
#139 = FACE_OUTER_BOUND ( 'NONE', #46, .T. ) ;
#140 = APPROVAL ( #148, 'UNSPECIFIED' ) ;
#141 = DATE_AND_TIME ( #30, #108 ) ;
#142 = AXIS2_PLACEMENT_3D ( 'NONE', #9, #59, #66 ) ;
#143 = CARTESIAN_POINT ( 'NONE',  ( 0.0000000000000000000, 0.0000000000000000000, -0.7500000000000000000 ) ) ;
#144 = DIRECTION ( 'NONE',  ( -0.0000000000000000000, -0.0000000000000000000, -1.000000000000000000 ) ) ;
#145 = VECTOR ( 'NONE', #144, 1000.000000000000000 ) ;
#146 = PRODUCT_DEFINITION_FORMATION_WITH_SPECIFIED_SOURCE ( 'ANY', '', #36, .NOT_KNOWN. ) ;
#147 = LOCAL_TIME ( 15, 33, 50.00000000000000000, #35 ) ;
#148 = APPROVAL_STATUS ( 'not_yet_approved' ) ;
#149 = CIRCLE ( 'NONE', #77, 38.10000000000000100 ) ;
#150 = COORDINATED_UNIVERSAL_TIME_OFFSET ( 5, 0, .BEHIND. ) ;
#151 = SECURITY_CLASSIFICATION ( '', '', #40 ) ;
#152 = AXIS2_PLACEMENT_3D ( 'NONE', #162, #37, #7 ) ;
#153 = DIRECTION ( 'NONE',  ( 0.0000000000000000000, 0.0000000000000000000, 1.000000000000000000 ) ) ;
#154 = ORIENTED_EDGE ( 'NONE', *, *, #67, .F. ) ;
#155 = PRODUCT_DEFINITION_SHAPE ( 'NONE', 'NONE',  #169 ) ;
#156 =( NAMED_UNIT ( * ) PLANE_ANGLE_UNIT ( ) SI_UNIT ( $, .RADIAN. ) );
#157 = APPROVAL_ROLE ( '' ) ;
#158 = PERSON_AND_ORGANIZATION ( #110, #49 ) ;
#159 = DATE_AND_TIME ( #10, #117 ) ;
#160 = ORIENTED_EDGE ( 'NONE', *, *, #61, .T. ) ;
#161 = DIRECTION ( 'NONE',  ( -0.0000000000000000000, -0.0000000000000000000, -1.000000000000000000 ) ) ;
#162 = CARTESIAN_POINT ( 'NONE',  ( 0.0000000000000000000, 0.0000000000000000000, 0.7500000000000000000 ) ) ;
#163 = VERTEX_POINT ( 'NONE', #172 ) ;
#164 = PRODUCT_RELATED_PRODUCT_CATEGORY ( 'detail', '', ( #36 ) ) ;
#165 = CALENDAR_DATE ( 2017, 24, 4 ) ;
#166 = AXIS2_PLACEMENT_3D ( 'NONE', #74, #1, #91 ) ;
#167 = VERTEX_POINT ( 'NONE', #83 ) ;
#168 = MANIFOLD_SOLID_BREP ( 'Boss-Extrude1', #118 ) ;
#169 = PRODUCT_DEFINITION ( 'UNKNOWN', '', #146, #65 ) ;
#170 = APPROVAL ( #87, 'UNSPECIFIED' ) ;
#171 = DIRECTION ( 'NONE',  ( 1.000000000000000000, 0.0000000000000000000, 0.0000000000000000000 ) ) ;
#172 = CARTESIAN_POINT ( 'NONE',  ( -38.10000000000000100, 0.0000000000000000000, -0.7500000000000000000 ) ) ;
#173 = LOCAL_TIME ( 15, 33, 50.00000000000000000, #39 ) ;
#174 = DATE_TIME_ROLE ( 'creation_date' ) ;
#175 = APPROVAL_DATE_TIME ( #134, #170 ) ;
ENDSEC;
END-ISO-10303-21;
