ISO-10303-21;
HEADER;
FILE_DESCRIPTION (( 'STEP AP203' ),
    '1' );
FILE_NAME ('Web Model 68419.STEP',
    '2017-01-31T20:01:04',
    ( '' ),
    ( '' ),
    'SwSTEP 2.0',
    'SolidWorks 2016',
    '' );
FILE_SCHEMA (( 'CONFIG_CONTROL_DESIGN' ));
ENDSEC;

DATA;
#1 = VECTOR ( 'NONE', #30, 1000.000000000000000 ) ;
#2 = CC_DESIGN_PERSON_AND_ORGANIZATION_ASSIGNMENT ( #97, #127, ( #76 ) ) ;
#3 = APPLICATION_PROTOCOL_DEFINITION ( 'international standard', 'config_control_design', 1994, #224 ) ;
#4 = ADVANCED_FACE ( 'NONE', ( #118 ), #81, .F. ) ;
#5 = DATE_AND_TIME ( #66, #150 ) ;
#6 = DATE_AND_TIME ( #42, #68 ) ;
#7 = PERSON_AND_ORGANIZATION ( #235, #146 ) ;
#8 = ORIENTED_EDGE ( 'NONE', *, *, #116, .T. ) ;
#9 = COORDINATED_UNIVERSAL_TIME_OFFSET ( 5, 0, .BEHIND. ) ;
#10 = ORIENTED_EDGE ( 'NONE', *, *, #187, .T. ) ;
#11 = CC_DESIGN_PERSON_AND_ORGANIZATION_ASSIGNMENT ( #37, #174, ( #76 ) ) ;
#12 = FACE_OUTER_BOUND ( 'NONE', #77, .T. ) ;
#13 = VERTEX_POINT ( 'NONE', #25 ) ;
#14 = DIRECTION ( 'NONE',  ( -0.0000000000000000000, -0.0000000000000000000, -1.000000000000000000 ) ) ;
#15 = PRODUCT_DEFINITION ( 'UNKNOWN', '', #76, #182 ) ;
#16 =( NAMED_UNIT ( * ) SI_UNIT ( $, .STERADIAN. ) SOLID_ANGLE_UNIT ( ) );
#17 = FACE_OUTER_BOUND ( 'NONE', #100, .T. ) ;
#18 = PERSON_AND_ORGANIZATION_ROLE ( 'classification_officer' ) ;
#19 = EDGE_LOOP ( 'NONE', ( #202, #70, #194, #153 ) ) ;
#20 = LINE ( 'NONE', #105, #180 ) ;
#21 = CLOSED_SHELL ( 'NONE', ( #92, #41, #126, #4, #56, #177 ) ) ;
#22 = CC_DESIGN_DATE_AND_TIME_ASSIGNMENT ( #6, #137, ( #15 ) ) ;
#23 = PERSON_AND_ORGANIZATION ( #235, #146 ) ;
#24 = AXIS2_PLACEMENT_3D ( 'NONE', #123, #74, #102 ) ;
#25 = CARTESIAN_POINT ( 'NONE',  ( -8.750000000000000000, -6.250000000000000900, 3.000000000000000000 ) ) ;
#26 = CC_DESIGN_APPROVAL ( #93, ( #15 ) ) ;
#27 = PERSON_AND_ORGANIZATION ( #235, #146 ) ;
#28 = DIRECTION ( 'NONE',  ( 0.0000000000000000000, -1.000000000000000000, 0.0000000000000000000 ) ) ;
#29 = EDGE_CURVE ( 'NONE', #113, #63, #50, .T. ) ;
#30 = DIRECTION ( 'NONE',  ( 1.110223024625156500E-015, 1.000000000000000000, -0.0000000000000000000 ) ) ;
#31 = CARTESIAN_POINT ( 'NONE',  ( 8.750000000000014200, 6.249999999999999100, 3.000000000000000000 ) ) ;
#32 = LINE ( 'NONE', #211, #89 ) ;
#33 = CARTESIAN_POINT ( 'NONE',  ( 8.750000000000014200, 6.249999999999999100, 3.000000000000000000 ) ) ;
#34 = APPROVAL ( #39, 'UNSPECIFIED' ) ;
#35 = CARTESIAN_POINT ( 'NONE',  ( 8.750000000000000000, -6.250000000000000900, 3.000000000000000000 ) ) ;
#36 = CARTESIAN_POINT ( 'NONE',  ( 8.750000000000000000, -6.250000000000000900, 0.0000000000000000000 ) ) ;
#37 = PERSON_AND_ORGANIZATION ( #235, #146 ) ;
#38 =( LENGTH_UNIT ( ) NAMED_UNIT ( * ) SI_UNIT ( .MILLI., .METRE. ) );
#39 = APPROVAL_STATUS ( 'not_yet_approved' ) ;
#40 = FACE_OUTER_BOUND ( 'NONE', #149, .T. ) ;
#41 = ADVANCED_FACE ( 'NONE', ( #40 ), #209, .F. ) ;
#42 = CALENDAR_DATE ( 2017, 31, 1 ) ;
#43 = LINE ( 'NONE', #217, #230 ) ;
#44 = ADVANCED_BREP_SHAPE_REPRESENTATION ( 'Web Model 68419', ( #130, #181 ), #85 ) ;
#45 = VERTEX_POINT ( 'NONE', #165 ) ;
#46 = CARTESIAN_POINT ( 'NONE',  ( 8.750000000000000000, -6.250000000000000900, 3.000000000000000000 ) ) ;
#47 = APPROVAL_DATE_TIME ( #213, #34 ) ;
#48 = EDGE_CURVE ( 'NONE', #13, #151, #157, .T. ) ;
#49 = PLANE ( 'NONE',  #198 ) ;
#50 = LINE ( 'NONE', #99, #1 ) ;
#51 = APPROVAL ( #156, 'UNSPECIFIED' ) ;
#52 = PLANE ( 'NONE',  #227 ) ;
#53 = CARTESIAN_POINT ( 'NONE',  ( -8.750000000000000000, 6.249999999999999100, 0.0000000000000000000 ) ) ;
#54 = EDGE_CURVE ( 'NONE', #223, #151, #129, .T. ) ;
#55 = CARTESIAN_POINT ( 'NONE',  ( 8.750000000000014200, 6.249999999999999100, 0.0000000000000000000 ) ) ;
#56 = ADVANCED_FACE ( 'NONE', ( #226 ), #49, .T. ) ;
#57 = AXIS2_PLACEMENT_3D ( 'NONE', #80, #28, #167 ) ;
#58 = APPLICATION_CONTEXT ( 'configuration controlled 3d designs of mechanical parts and assemblies' ) ;
#59 = VECTOR ( 'NONE', #163, 1000.000000000000000 ) ;
#60 = EDGE_CURVE ( 'NONE', #63, #223, #161, .T. ) ;
#61 = CC_DESIGN_APPROVAL ( #34, ( #162 ) ) ;
#62 = COORDINATED_UNIVERSAL_TIME_OFFSET ( 5, 0, .BEHIND. ) ;
#63 = VERTEX_POINT ( 'NONE', #55 ) ;
#64 = APPROVAL_DATE_TIME ( #5, #51 ) ;
#65 = ORIENTED_EDGE ( 'NONE', *, *, #48, .F. ) ;
#66 = CALENDAR_DATE ( 2017, 31, 1 ) ;
#67 = DIRECTION ( 'NONE',  ( -0.0000000000000000000, 0.0000000000000000000, 1.000000000000000000 ) ) ;
#68 = LOCAL_TIME ( 15, 1, 4.000000000000000000, #62 ) ;
#69 = UNCERTAINTY_MEASURE_WITH_UNIT (LENGTH_MEASURE( 1.000000000000000100E-005 ), #38, 'distance_accuracy_value', 'NONE');
#70 = ORIENTED_EDGE ( 'NONE', *, *, #106, .F. ) ;
#71 = CARTESIAN_POINT ( 'NONE',  ( -8.750000000000000000, -6.250000000000000900, 3.000000000000000000 ) ) ;
#72 = EDGE_LOOP ( 'NONE', ( #184, #144, #159, #178 ) ) ;
#73 = DIRECTION ( 'NONE',  ( 1.000000000000000000, 0.0000000000000000000, 0.0000000000000000000 ) ) ;
#74 = DIRECTION ( 'NONE',  ( -1.000000000000000000, 1.110223024625156300E-015, 0.0000000000000000000 ) ) ;
#75 = SECURITY_CLASSIFICATION_LEVEL ( 'unclassified' ) ;
#76 = PRODUCT_DEFINITION_FORMATION_WITH_SPECIFIED_SOURCE ( 'ANY', '', #201, .NOT_KNOWN. ) ;
#77 = EDGE_LOOP ( 'NONE', ( #210, #147, #206, #139 ) ) ;
#78 = APPROVAL_PERSON_ORGANIZATION ( #27, #93, #197 ) ;
#79 = VECTOR ( 'NONE', #228, 1000.000000000000000 ) ;
#80 = CARTESIAN_POINT ( 'NONE',  ( -8.750000000000000000, 6.249999999999999100, 3.000000000000000000 ) ) ;
#81 = PLANE ( 'NONE',  #214 ) ;
#82 = VERTEX_POINT ( 'NONE', #33 ) ;
#83 = CARTESIAN_POINT ( 'NONE',  ( -8.750000000000000000, 6.249999999999999100, 0.0000000000000000000 ) ) ;
#84 = DIRECTION ( 'NONE',  ( 1.110223024625156500E-015, 1.000000000000000000, -0.0000000000000000000 ) ) ;
#85 =( GEOMETRIC_REPRESENTATION_CONTEXT ( 3 ) GLOBAL_UNCERTAINTY_ASSIGNED_CONTEXT ( ( #69 ) ) GLOBAL_UNIT_ASSIGNED_CONTEXT ( ( #38, #91, #16 ) ) REPRESENTATION_CONTEXT ( 'NONE', 'WORKASPACE' ) );
#86 = CARTESIAN_POINT ( 'NONE',  ( -8.750000000000000000, 6.249999999999999100, 3.000000000000000000 ) ) ;
#87 = CC_DESIGN_APPROVAL ( #51, ( #76 ) ) ;
#88 = MECHANICAL_CONTEXT ( 'NONE', #58, 'mechanical' ) ;
#89 = VECTOR ( 'NONE', #84, 1000.000000000000000 ) ;
#90 = ORIENTED_EDGE ( 'NONE', *, *, #60, .T. ) ;
#91 =( NAMED_UNIT ( * ) PLANE_ANGLE_UNIT ( ) SI_UNIT ( $, .RADIAN. ) );
#92 = ADVANCED_FACE ( 'NONE', ( #12 ), #104, .F. ) ;
#93 = APPROVAL ( #221, 'UNSPECIFIED' ) ;
#94 = PERSON_AND_ORGANIZATION ( #235, #146 ) ;
#95 = VECTOR ( 'NONE', #192, 1000.000000000000000 ) ;
#96 = ORIENTED_EDGE ( 'NONE', *, *, #188, .T. ) ;
#97 = PERSON_AND_ORGANIZATION ( #235, #146 ) ;
#98 = PRODUCT_DEFINITION_SHAPE ( 'NONE', 'NONE',  #15 ) ;
#99 = CARTESIAN_POINT ( 'NONE',  ( 8.750000000000014200, 6.249999999999999100, 0.0000000000000000000 ) ) ;
#100 = EDGE_LOOP ( 'NONE', ( #219, #65, #125, #96 ) ) ;
#101 = CARTESIAN_POINT ( 'NONE',  ( 8.750000000000000000, -6.250000000000000900, 0.0000000000000000000 ) ) ;
#102 = DIRECTION ( 'NONE',  ( -1.110223024625156300E-015, -1.000000000000000000, 0.0000000000000000000 ) ) ;
#103 = VERTEX_POINT ( 'NONE', #86 ) ;
#104 = PLANE ( 'NONE',  #24 ) ;
#105 = CARTESIAN_POINT ( 'NONE',  ( -8.750000000000000000, 6.249999999999999100, 3.000000000000000000 ) ) ;
#106 = EDGE_CURVE ( 'NONE', #45, #113, #183, .T. ) ;
#107 = DATE_AND_TIME ( #196, #148 ) ;
#108 = VECTOR ( 'NONE', #171, 1000.000000000000000 ) ;
#109 = PERSON_AND_ORGANIZATION_ROLE ( 'creator' ) ;
#110 = APPROVAL_ROLE ( '' ) ;
#111 = APPROVAL_DATE_TIME ( #107, #93 ) ;
#112 = VECTOR ( 'NONE', #14, 1000.000000000000000 ) ;
#113 = VERTEX_POINT ( 'NONE', #36 ) ;
#114 = CALENDAR_DATE ( 2017, 31, 1 ) ;
#115 = ORIENTED_EDGE ( 'NONE', *, *, #185, .T. ) ;
#116 = EDGE_CURVE ( 'NONE', #45, #82, #32, .T. ) ;
#117 = APPROVAL_PERSON_ORGANIZATION ( #94, #51, #141 ) ;
#118 = FACE_OUTER_BOUND ( 'NONE', #19, .T. ) ;
#119 = DIRECTION ( 'NONE',  ( 0.0000000000000000000, -0.0000000000000000000, 1.000000000000000000 ) ) ;
#120 = DIRECTION ( 'NONE',  ( 0.0000000000000000000, -1.000000000000000000, 0.0000000000000000000 ) ) ;
#121 = CC_DESIGN_PERSON_AND_ORGANIZATION_ASSIGNMENT ( #135, #109, ( #15 ) ) ;
#122 = VECTOR ( 'NONE', #169, 1000.000000000000000 ) ;
#123 = CARTESIAN_POINT ( 'NONE',  ( 8.750000000000014200, 6.249999999999999100, 3.000000000000000000 ) ) ;
#124 = VECTOR ( 'NONE', #232, 1000.000000000000000 ) ;
#125 = ORIENTED_EDGE ( 'NONE', *, *, #220, .F. ) ;
#126 = ADVANCED_FACE ( 'NONE', ( #17 ), #52, .F. ) ;
#127 = PERSON_AND_ORGANIZATION_ROLE ( 'design_supplier' ) ;
#128 = LINE ( 'NONE', #31, #124 ) ;
#129 = LINE ( 'NONE', #186, #79 ) ;
#130 = MANIFOLD_SOLID_BREP ( 'Extrude1', #21 ) ;
#131 = ORIENTED_EDGE ( 'NONE', *, *, #220, .T. ) ;
#132 = EDGE_CURVE ( 'NONE', #151, #113, #176, .T. ) ;
#133 = CARTESIAN_POINT ( 'NONE',  ( -8.750000000000000000, 6.249999999999999100, 3.000000000000000000 ) ) ;
#134 = DIRECTION ( 'NONE',  ( -0.0000000000000000000, 0.0000000000000000000, -1.000000000000000000 ) ) ;
#135 = PERSON_AND_ORGANIZATION ( #235, #146 ) ;
#136 = LINE ( 'NONE', #172, #108 ) ;
#137 = DATE_TIME_ROLE ( 'creation_date' ) ;
#138 = LOCAL_TIME ( 15, 1, 4.000000000000000000, #164 ) ;
#139 = ORIENTED_EDGE ( 'NONE', *, *, #106, .T. ) ;
#140 = DATE_TIME_ROLE ( 'classification_date' ) ;
#141 = APPROVAL_ROLE ( '' ) ;
#142 = COORDINATED_UNIVERSAL_TIME_OFFSET ( 5, 0, .BEHIND. ) ;
#143 = AXIS2_PLACEMENT_3D ( 'NONE', #101, #216, #152 ) ;
#144 = ORIENTED_EDGE ( 'NONE', *, *, #132, .F. ) ;
#145 = LOCAL_TIME ( 15, 1, 4.000000000000000000, #9 ) ;
#146 = ORGANIZATION ( 'UNSPECIFIED', 'UNSPECIFIED', '' ) ;
#147 = ORIENTED_EDGE ( 'NONE', *, *, #187, .F. ) ;
#148 = LOCAL_TIME ( 15, 1, 4.000000000000000000, #142 ) ;
#149 = EDGE_LOOP ( 'NONE', ( #90, #160, #233, #10 ) ) ;
#150 = LOCAL_TIME ( 15, 1, 4.000000000000000000, #203 ) ;
#151 = VERTEX_POINT ( 'NONE', #212 ) ;
#152 = DIRECTION ( 'NONE',  ( 1.000000000000000000, 0.0000000000000000000, 0.0000000000000000000 ) ) ;
#153 = ORIENTED_EDGE ( 'NONE', *, *, #48, .T. ) ;
#154 = PLANE ( 'NONE',  #143 ) ;
#155 = CARTESIAN_POINT ( 'NONE',  ( -8.750000000000000000, -6.250000000000000900, 3.000000000000000000 ) ) ;
#156 = APPROVAL_STATUS ( 'not_yet_approved' ) ;
#157 = LINE ( 'NONE', #71, #59 ) ;
#158 = DIRECTION ( 'NONE',  ( -1.000000000000000000, -0.0000000000000000000, -0.0000000000000000000 ) ) ;
#159 = ORIENTED_EDGE ( 'NONE', *, *, #54, .F. ) ;
#160 = ORIENTED_EDGE ( 'NONE', *, *, #188, .F. ) ;
#161 = LINE ( 'NONE', #53, #122 ) ;
#162 = SECURITY_CLASSIFICATION ( '', '', #75 ) ;
#163 = DIRECTION ( 'NONE',  ( -0.0000000000000000000, -0.0000000000000000000, -1.000000000000000000 ) ) ;
#164 = COORDINATED_UNIVERSAL_TIME_OFFSET ( 5, 0, .BEHIND. ) ;
#165 = CARTESIAN_POINT ( 'NONE',  ( 8.750000000000000000, -6.250000000000000900, 3.000000000000000000 ) ) ;
#166 = DIRECTION ( 'NONE',  ( 0.0000000000000000000, 1.000000000000000000, 0.0000000000000000000 ) ) ;
#167 = DIRECTION ( 'NONE',  ( 0.0000000000000000000, -0.0000000000000000000, -1.000000000000000000 ) ) ;
#168 = DIRECTION ( 'NONE',  ( 1.000000000000000000, 0.0000000000000000000, -0.0000000000000000000 ) ) ;
#169 = DIRECTION ( 'NONE',  ( -1.000000000000000000, -0.0000000000000000000, -0.0000000000000000000 ) ) ;
#170 = CARTESIAN_POINT ( 'NONE',  ( -8.750000000000000000, -6.250000000000000900, 0.0000000000000000000 ) ) ;
#171 = DIRECTION ( 'NONE',  ( -0.0000000000000000000, -0.0000000000000000000, -1.000000000000000000 ) ) ;
#172 = CARTESIAN_POINT ( 'NONE',  ( -8.750000000000000000, 6.249999999999999100, 3.000000000000000000 ) ) ;
#173 = SHAPE_DEFINITION_REPRESENTATION ( #98, #44 ) ;
#174 = PERSON_AND_ORGANIZATION_ROLE ( 'creator' ) ;
#175 = APPLICATION_PROTOCOL_DEFINITION ( 'international standard', 'config_control_design', 1994, #58 ) ;
#176 = LINE ( 'NONE', #170, #204 ) ;
#177 = ADVANCED_FACE ( 'NONE', ( #190 ), #154, .F. ) ;
#178 = ORIENTED_EDGE ( 'NONE', *, *, #60, .F. ) ;
#179 = CC_DESIGN_PERSON_AND_ORGANIZATION_ASSIGNMENT ( #229, #18, ( #162 ) ) ;
#180 = VECTOR ( 'NONE', #120, 1000.000000000000000 ) ;
#181 = AXIS2_PLACEMENT_3D ( 'NONE', #237, #200, #222 ) ;
#182 = DESIGN_CONTEXT ( 'detailed design', #224, 'design' ) ;
#183 = LINE ( 'NONE', #35, #112 ) ;
#184 = ORIENTED_EDGE ( 'NONE', *, *, #29, .F. ) ;
#185 = EDGE_CURVE ( 'NONE', #13, #45, #231, .T. ) ;
#186 = CARTESIAN_POINT ( 'NONE',  ( -8.750000000000000000, 6.249999999999999100, 0.0000000000000000000 ) ) ;
#187 = EDGE_CURVE ( 'NONE', #82, #63, #128, .T. ) ;
#188 = EDGE_CURVE ( 'NONE', #103, #223, #136, .T. ) ;
#189 = APPROVAL_PERSON_ORGANIZATION ( #23, #34, #110 ) ;
#190 = FACE_OUTER_BOUND ( 'NONE', #72, .T. ) ;
#191 = PRODUCT_RELATED_PRODUCT_CATEGORY ( 'detail', '', ( #201 ) ) ;
#192 = DIRECTION ( 'NONE',  ( 1.000000000000000000, 0.0000000000000000000, 0.0000000000000000000 ) ) ;
#193 = CC_DESIGN_DATE_AND_TIME_ASSIGNMENT ( #225, #140, ( #162 ) ) ;
#194 = ORIENTED_EDGE ( 'NONE', *, *, #185, .F. ) ;
#195 = CC_DESIGN_PERSON_AND_ORGANIZATION_ASSIGNMENT ( #7, #199, ( #201 ) ) ;
#196 = CALENDAR_DATE ( 2017, 31, 1 ) ;
#197 = APPROVAL_ROLE ( '' ) ;
#198 = AXIS2_PLACEMENT_3D ( 'NONE', #46, #67, #218 ) ;
#199 = PERSON_AND_ORGANIZATION_ROLE ( 'design_owner' ) ;
#200 = DIRECTION ( 'NONE',  ( 0.0000000000000000000, 0.0000000000000000000, 1.000000000000000000 ) ) ;
#201 = PRODUCT ( 'Web Model 68419', 'Web Model 68419', '', ( #88 ) ) ;
#202 = ORIENTED_EDGE ( 'NONE', *, *, #132, .T. ) ;
#203 = COORDINATED_UNIVERSAL_TIME_OFFSET ( 5, 0, .BEHIND. ) ;
#204 = VECTOR ( 'NONE', #73, 1000.000000000000000 ) ;
#205 = ORIENTED_EDGE ( 'NONE', *, *, #236, .T. ) ;
#206 = ORIENTED_EDGE ( 'NONE', *, *, #116, .F. ) ;
#207 = CARTESIAN_POINT ( 'NONE',  ( -8.750000000000000000, -6.250000000000000900, 3.000000000000000000 ) ) ;
#208 = CC_DESIGN_SECURITY_CLASSIFICATION ( #162, ( #76 ) ) ;
#209 = PLANE ( 'NONE',  #57 ) ;
#210 = ORIENTED_EDGE ( 'NONE', *, *, #29, .T. ) ;
#211 = CARTESIAN_POINT ( 'NONE',  ( 8.750000000000014200, 6.249999999999999100, 3.000000000000000000 ) ) ;
#212 = CARTESIAN_POINT ( 'NONE',  ( -8.750000000000000000, -6.250000000000000900, 0.0000000000000000000 ) ) ;
#213 = DATE_AND_TIME ( #114, #138 ) ;
#214 = AXIS2_PLACEMENT_3D ( 'NONE', #207, #166, #119 ) ;
#215 = EDGE_LOOP ( 'NONE', ( #8, #205, #131, #115 ) ) ;
#216 = DIRECTION ( 'NONE',  ( -0.0000000000000000000, 0.0000000000000000000, 1.000000000000000000 ) ) ;
#217 = CARTESIAN_POINT ( 'NONE',  ( -8.750000000000000000, 6.249999999999999100, 3.000000000000000000 ) ) ;
#218 = DIRECTION ( 'NONE',  ( 1.000000000000000000, 0.0000000000000000000, 0.0000000000000000000 ) ) ;
#219 = ORIENTED_EDGE ( 'NONE', *, *, #54, .T. ) ;
#220 = EDGE_CURVE ( 'NONE', #103, #13, #20, .T. ) ;
#221 = APPROVAL_STATUS ( 'not_yet_approved' ) ;
#222 = DIRECTION ( 'NONE',  ( 1.000000000000000000, 0.0000000000000000000, 0.0000000000000000000 ) ) ;
#223 = VERTEX_POINT ( 'NONE', #83 ) ;
#224 = APPLICATION_CONTEXT ( 'configuration controlled 3d designs of mechanical parts and assemblies' ) ;
#225 = DATE_AND_TIME ( #234, #145 ) ;
#226 = FACE_OUTER_BOUND ( 'NONE', #215, .T. ) ;
#227 = AXIS2_PLACEMENT_3D ( 'NONE', #133, #168, #134 ) ;
#228 = DIRECTION ( 'NONE',  ( 0.0000000000000000000, -1.000000000000000000, 0.0000000000000000000 ) ) ;
#229 = PERSON_AND_ORGANIZATION ( #235, #146 ) ;
#230 = VECTOR ( 'NONE', #158, 1000.000000000000000 ) ;
#231 = LINE ( 'NONE', #155, #95 ) ;
#232 = DIRECTION ( 'NONE',  ( -0.0000000000000000000, -0.0000000000000000000, -1.000000000000000000 ) ) ;
#233 = ORIENTED_EDGE ( 'NONE', *, *, #236, .F. ) ;
#234 = CALENDAR_DATE ( 2017, 31, 1 ) ;
#235 = PERSON ( 'UNSPECIFIED', 'UNSPECIFIED', 'UNSPECIFIED', ('UNSPECIFIED'), ('UNSPECIFIED'), ('UNSPECIFIED') ) ;
#236 = EDGE_CURVE ( 'NONE', #82, #103, #43, .T. ) ;
#237 = CARTESIAN_POINT ( 'NONE',  ( 0.0000000000000000000, 0.0000000000000000000, 0.0000000000000000000 ) ) ;
ENDSEC;
END-ISO-10303-21;
