  0
SECTION
  2
HEADER
  9
$ACADVER
  1
AC1014
  9
$ACADMAINTVER
 70
     0
  9
$DWGCODEPAGE
  3
ANSI_1252
  9
$INSBASE
 10
0.0
 20
0.0
 30
0.0
  9
$EXTMIN
 10
3.958601
 20
9.184543
 30
0.0
  9
$EXTMAX
 10
15.473422
 20
13.660298
 30
0.18
  9
$LIMMIN
 10
0.0
 20
0.0
  9
$LIMMAX
 10
17.0
 20
11.0
  9
$ORTHOMODE
 70
     1
  9
$REGENMODE
 70
     1
  9
$FILLMODE
 70
     1
  9
$QTEXTMODE
 70
     0
  9
$MIRRTEXT
 70
     0
  9
$DRAGMODE
 70
     2
  9
$LTSCALE
 40
0.25
  9
$OSMODE
 70
     0
  9
$ATTMODE
 70
     1
  9
$TEXTSIZE
 40
0.08
  9
$TRACEWID
 40
0.05
  9
$TEXTSTYLE
  7
STANDARD
  9
$CLAYER
  8
0
  9
$CELTYPE
  6
BYLAYER
  9
$CECOLOR
 62
   256
  9
$CELTSCALE
 40
1.0
  9
$DELOBJ
 70
     1
  9
$DISPSILH
 70
     0
  9
$DIMSCALE
 40
0.4
  9
$DIMASZ
 40
0.25
  9
$DIMEXO
 40
0.0625
  9
$DIMDLI
 40
0.38
  9
$DIMRND
 40
0.0
  9
$DIMDLE
 40
0.0
  9
$DIMEXE
 40
0.06
  9
$DIMTP
 40
0.0
  9
$DIMTM
 40
0.0
  9
$DIMTXT
 40
0.2
  9
$DIMCEN
 40
0.09
  9
$DIMTSZ
 40
0.0
  9
$DIMTOL
 70
     0
  9
$DIMLIM
 70
     0
  9
$DIMTIH
 70
     1
  9
$DIMTOH
 70
     1
  9
$DIMSE1
 70
     0
  9
$DIMSE2
 70
     0
  9
$DIMTAD
 70
     0
  9
$DIMZIN
 70
     0
  9
$DIMBLK
  1

  9
$DIMASO
 70
     0
  9
$DIMSHO
 70
     0
  9
$DIMPOST
  1

  9
$DIMAPOST
  1

  9
$DIMALT
 70
     0
  9
$DIMALTD
 70
     2
  9
$DIMALTF
 40
25.4
  9
$DIMLFAC
 40
1.0
  9
$DIMTOFL
 70
     0
  9
$DIMTVP
 40
0.0
  9
$DIMTIX
 70
     1
  9
$DIMSOXD
 70
     0
  9
$DIMSAH
 70
     0
  9
$DIMBLK1
  1

  9
$DIMBLK2
  1

  9
$DIMSTYLE
  2
STANDARD
  9
$DIMCLRD
 70
     0
  9
$DIMCLRE
 70
     0
  9
$DIMCLRT
 70
     0
  9
$DIMTFAC
 40
1.0
  9
$DIMGAP
 40
0.09
  9
$DIMJUST
 70
     0
  9
$DIMSD1
 70
     0
  9
$DIMSD2
 70
     0
  9
$DIMTOLJ
 70
     1
  9
$DIMTZIN
 70
     0
  9
$DIMALTZ
 70
     0
  9
$DIMALTTZ
 70
     0
  9
$DIMFIT
 70
     3
  9
$DIMUPT
 70
     0
  9
$DIMUNIT
 70
     2
  9
$DIMDEC
 70
     3
  9
$DIMTDEC
 70
     4
  9
$DIMALTU
 70
     2
  9
$DIMALTTD
 70
     2
  9
$DIMTXSTY
  7
STANDARD
  9
$DIMAUNIT
 70
     0
  9
$LUNITS
 70
     2
  9
$LUPREC
 70
     3
  9
$SKETCHINC
 40
0.1
  9
$FILLETRAD
 40
0.0
  9
$AUNITS
 70
     0
  9
$AUPREC
 70
     0
  9
$MENU
  1
C:\R13\WIN\ACAD
  9
$ELEVATION
 40
0.0
  9
$PELEVATION
 40
0.0
  9
$THICKNESS
 40
0.0
  9
$LIMCHECK
 70
     0
  9
$BLIPMODE
 70
     0
  9
$CHAMFERA
 40
0.01
  9
$CHAMFERB
 40
0.01
  9
$CHAMFERC
 40
0.0
  9
$CHAMFERD
 40
0.0
  9
$SKPOLY
 70
     0
  9
$TDCREATE
 40
2449547.531668518
  9
$TDUPDATE
 40
2451368.388918171
  9
$TDINDWG
 40
1.1117906250
  9
$TDUSRTIMER
 40
1.1117906250
  9
$USRTIMER
 70
     1
  9
$ANGBASE
 50
0.0
  9
$ANGDIR
 70
     0
  9
$PDMODE
 70
     0
  9
$PDSIZE
 40
0.0
  9
$PLINEWID
 40
0.0
  9
$COORDS
 70
     2
  9
$SPLFRAME
 70
     0
  9
$SPLINETYPE
 70
     6
  9
$SPLINESEGS
 70
     8
  9
$ATTDIA
 70
     0
  9
$ATTREQ
 70
     1
  9
$HANDLING
 70
     1
  9
$HANDSEED
  5
261E
  9
$SURFTAB1
 70
     6
  9
$SURFTAB2
 70
     6
  9
$SURFTYPE
 70
     6
  9
$SURFU
 70
     6
  9
$SURFV
 70
     6
  9
$UCSNAME
  2

  9
$UCSORG
 10
0.0
 20
0.0
 30
0.0
  9
$UCSXDIR
 10
1.0
 20
0.0
 30
0.0
  9
$UCSYDIR
 10
0.0
 20
1.0
 30
0.0
  9
$PUCSNAME
  2

  9
$PUCSORG
 10
4.789028513264677
 20
5.486174343911555
 30
0.0
  9
$PUCSXDIR
 10
1.0
 20
0.0
 30
0.0
  9
$PUCSYDIR
 10
0.0
 20
1.0
 30
0.0
  9
$USERI1
 70
     0
  9
$USERI2
 70
     0
  9
$USERI3
 70
     0
  9
$USERI4
 70
     0
  9
$USERI5
 70
     0
  9
$USERR1
 40
0.0
  9
$USERR2
 40
0.0
  9
$USERR3
 40
0.0
  9
$USERR4
 40
0.0
  9
$USERR5
 40
0.0
  9
$WORLDVIEW
 70
     1
  9
$SHADEDGE
 70
     3
  9
$SHADEDIF
 70
    70
  9
$TILEMODE
 70
     0
  9
$MAXACTVP
 70
    16
  9
$PINSBASE
 10
0.0
 20
0.0
 30
0.0
  9
$PLIMCHECK
 70
     0
  9
$PEXTMIN
 10
0.105666
 20
0.063804
 30
0.0
  9
$PEXTMAX
 10
16.149909
 20
11.76052
 30
0.34938
  9
$PLIMMIN
 10
0.0
 20
0.0
  9
$PLIMMAX
 10
12.0
 20
9.0
  9
$UNITMODE
 70
     0
  9
$VISRETAIN
 70
     0
  9
$PLINEGEN
 70
     0
  9
$PSLTSCALE
 70
     0
  9
$TREEDEPTH
 70
  3020
  9
$PICKSTYLE
 70
     1
  9
$CMLSTYLE
  2
STANDARD
  9
$CMLJUST
 70
     0
  9
$CMLSCALE
 40
1.0
  9
$PROXYGRAPHICS
 70
     1
  9
$MEASUREMENT
 70
     0
  0
ENDSEC
  0
SECTION
  2
CLASSES
  0
CLASS
  1
LWPOLYLINE
  2
AcDbPolyline
  3
"AutoCAD"
 90
        0
280
     0
281
     1
  0
ENDSEC
  0
SECTION
  2
TABLES
  0
TABLE
  2
VPORT
  5
8
100
AcDbSymbolTable
 70
     1
  0
VPORT
  5
18C0
100
AcDbSymbolTableRecord
100
AcDbViewportTableRecord
  2
*ACTIVE
 70
     0
 10
0.0
 20
0.0
 11
1.0
 21
1.0
 12
10.270716
 22
12.213679
 13
0.0
 23
0.0
 14
0.005
 24
0.005
 15
0.25
 25
0.25
 16
0.0
 26
0.0
 36
1.0
 17
0.0
 27
0.0
 37
0.0
 40
6.120194
 41
1.490046
 42
50.0
 43
0.0
 44
0.0
 50
0.0
 51
0.0
 71
     0
 72
   100
 73
     0
 74
     0
 75
     0
 76
     0
 77
     0
 78
     0
  0
ENDTAB
  0
TABLE
  2
LTYPE
  5
5
100
AcDbSymbolTable
 70
     3
  0
LTYPE
  5
12
100
AcDbSymbolTableRecord
100
AcDbLinetypeTableRecord
  2
BYBLOCK
 70
     0
  3

 72
    65
 73
     0
 40
0.0
  0
LTYPE
  5
13
100
AcDbSymbolTableRecord
100
AcDbLinetypeTableRecord
  2
BYLAYER
 70
     0
  3

 72
    65
 73
     0
 40
0.0
  0
LTYPE
  5
14
100
AcDbSymbolTableRecord
100
AcDbLinetypeTableRecord
  2
CONTINUOUS
 70
     0
  3
Solid line
 72
    65
 73
     0
 40
0.0
  0
LTYPE
  5
1C
100
AcDbSymbolTableRecord
100
AcDbLinetypeTableRecord
  2
HIDDEN
 70
     0
  3
__ __ __ __ __ __ __ __ __ __ __ __ __ __ __ __
 72
    65
 73
     2
 40
0.375
 49
0.25
 74
     0
 49
-0.125
 74
     0
  0
LTYPE
  5
11E5
100
AcDbSymbolTableRecord
100
AcDbLinetypeTableRecord
  2
CENTER
 70
     0
  3
____ _ ____ _ ____ _ ____ _ ____ _ ____ _ ____
 72
    65
 73
     4
 40
2.0
 49
1.25
 74
     0
 49
-0.25
 74
     0
 49
0.25
 74
     0
 49
-0.25
 74
     0
  0
ENDTAB
  0
TABLE
  2
LAYER
  5
2
100
AcDbSymbolTable
 70
    13
  0
LAYER
  5
F
100
AcDbSymbolTableRecord
100
AcDbLayerTableRecord
  2
0
 70
     0
 62
     7
  6
CONTINUOUS
  0
LAYER
  5
22
100
AcDbSymbolTableRecord
100
AcDbLayerTableRecord
  2
BORDER
 70
     0
 62
     7
  6
CONTINUOUS
  0
LAYER
  5
23
100
AcDbSymbolTableRecord
100
AcDbLayerTableRecord
  2
SHEET1
 70
     0
 62
     7
  6
CONTINUOUS
  0
LAYER
  5
24
100
AcDbSymbolTableRecord
100
AcDbLayerTableRecord
  2
DIM1
 70
     0
 62
     7
  6
CONTINUOUS
  0
LAYER
  5
25
100
AcDbSymbolTableRecord
100
AcDbLayerTableRecord
  2
SHEET2
 70
     1
 62
     7
  6
CONTINUOUS
  0
LAYER
  5
26
100
AcDbSymbolTableRecord
100
AcDbLayerTableRecord
  2
SHEET3
 70
     1
 62
     7
  6
CONTINUOUS
  0
LAYER
  5
2A
100
AcDbSymbolTableRecord
100
AcDbLayerTableRecord
  2
VIEW-BORDER
 70
     1
 62
     7
  6
CONTINUOUS
  0
LAYER
  5
11C1
100
AcDbSymbolTableRecord
100
AcDbLayerTableRecord
  2
BODY
 70
     0
 62
     7
  6
CONTINUOUS
  0
LAYER
  5
11E7
100
AcDbSymbolTableRecord
100
AcDbLayerTableRecord
  2
D1
 70
     0
 62
     7
  6
CONTINUOUS
  0
LAYER
  5
1BF0
100
AcDbSymbolTableRecord
100
AcDbLayerTableRecord
  2
SILK-SCREEN
 70
     0
 62
     7
  6
CONTINUOUS
  0
ENDTAB
  0
TABLE
  2
STYLE
  5
3
100
AcDbSymbolTable
 70
     2
  0
STYLE
  5
10
100
AcDbSymbolTableRecord
100
AcDbTextStyleTableRecord
  2
STANDARD
 70
     0
 40
0.0
 41
1.0
 50
0.0
 71
     0
 42
0.08
  3
txt
  4

  0
STYLE
  5
E09
100
AcDbSymbolTableRecord
100
AcDbTextStyleTableRecord
  2
HL-HD
 70
     0
 40
0.0
 41
1.0
 50
0.0
 71
     0
 42
0.1
  3
S:\dwgs\hl-hd.shx
  4

  0
ENDTAB
  0
TABLE
  2
VIEW
  5
6
100
AcDbSymbolTable
 70
     1
  0
VIEW
  5
2581
100
AcDbSymbolTableRecord
100
AcDbViewTableRecord
  2
FULL
 70
     0
 40
24.908848
 10
17.125665
 20
10.597832
 41
34.207965
 11
0.0
 21
0.0
 31
1.0
 12
0.0
 22
0.0
 32
0.0
 42
50.0
 43
0.0
 44
0.0
 50
0.0
 71
     0
  0
ENDTAB
  0
TABLE
  2
UCS
  5
7
100
AcDbSymbolTable
 70
     0
  0
ENDTAB
  0
TABLE
  2
APPID
  5
9
100
AcDbSymbolTable
 70
     5
  0
APPID
  5
11
100
AcDbSymbolTableRecord
100
AcDbRegAppTableRecord
  2
ACAD
 70
     0
  0
APPID
  5
2606
100
AcDbSymbolTableRecord
100
AcDbRegAppTableRecord
  2
CONTENTTABDATA
 70
     0
  0
APPID
  5
2607
100
AcDbSymbolTableRecord
100
AcDbRegAppTableRecord
  2
CONTENTCURRENTTAB
 70
     0
  0
APPID
  5
260B
100
AcDbSymbolTableRecord
100
AcDbRegAppTableRecord
  2
CONTENTBLOCKDESCRIPTION
 70
     0
  0
APPID
  5
2613
100
AcDbSymbolTableRecord
100
AcDbRegAppTableRecord
  2
CONTENTBLOCKICON
 70
     0
  0
ENDTAB
  0
TABLE
  2
DIMSTYLE
  5
A
100
AcDbSymbolTable
 70
     1
  0
DIMSTYLE
105
12C
100
AcDbSymbolTableRecord
100
AcDbDimStyleTableRecord
  2
STANDARD
 70
     0
  3

  4

  5

  6

  7

 40
1.0
 41
0.18
 42
0.0625
 43
0.38
 44
0.18
 45
0.0
 46
0.0
 47
0.0
 48
0.0
140
0.18
141
0.09
142
0.0
143
25.4
144
1.0
145
0.0
146
1.0
147
0.09
 71
     0
 72
     0
 73
     1
 74
     1
 75
     0
 76
     0
 77
     0
 78
     0
170
     0
171
     2
172
     0
173
     0
174
     0
175
     0
176
     0
177
     0
178
     0
270
     2
271
     4
272
     4
273
     2
274
     2
340
10
275
     0
280
     0
281
     0
282
     0
283
     1
284
     0
285
     0
286
     0
287
     3
288
     0
  0
ENDTAB
  0
TABLE
  2
BLOCK_RECORD
  5
1
100
AcDbSymbolTable
 70
    16
  0
BLOCK_RECORD
  5
18
100
AcDbSymbolTableRecord
100
AcDbBlockTableRecord
  2
*MODEL_SPACE
  0
BLOCK_RECORD
  5
15
100
AcDbSymbolTableRecord
100
AcDbBlockTableRecord
  2
*PAPER_SPACE
  0
BLOCK_RECORD
  5
67E
100
AcDbSymbolTableRecord
100
AcDbBlockTableRecord
  2
BNC-SIDE
  0
BLOCK_RECORD
  5
6A0
100
AcDbSymbolTableRecord
100
AcDbBlockTableRecord
  2
TOGGLE-SIDE
  0
BLOCK_RECORD
  5
EC7
100
AcDbSymbolTableRecord
100
AcDbBlockTableRecord
  2
BNC
  0
BLOCK_RECORD
  5
EDB
100
AcDbSymbolTableRecord
100
AcDbBlockTableRecord
  2
LOGO
  0
BLOCK_RECORD
  5
11B0
100
AcDbSymbolTableRecord
100
AcDbBlockTableRecord
  2
TOGGLE-TOP
  0
BLOCK_RECORD
  5
1BE1
100
AcDbSymbolTableRecord
100
AcDbBlockTableRecord
  2
CE-MARK
  0
BLOCK_RECORD
  5
1FF2
100
AcDbSymbolTableRecord
100
AcDbBlockTableRecord
  2
*X8
  0
BLOCK_RECORD
  5
21DB
100
AcDbSymbolTableRecord
100
AcDbBlockTableRecord
  2
*X9
  0
BLOCK_RECORD
  5
2205
100
AcDbSymbolTableRecord
100
AcDbBlockTableRecord
  2
*X10
  0
BLOCK_RECORD
  5
2367
100
AcDbSymbolTableRecord
100
AcDbBlockTableRecord
  2
*X11
  0
BLOCK_RECORD
  5
24B9
100
AcDbSymbolTableRecord
100
AcDbBlockTableRecord
  2
*X12
  0
BLOCK_RECORD
  5
260C
100
AcDbSymbolTableRecord
100
AcDbBlockTableRecord
  2
COPYRIGHT99
1001
CONTENTBLOCKDESCRIPTION
1071
        0
1000
copy right symbol for upper left hand corner of screen
1001
CONTENTBLOCKICON
1071
        0
1004
2800000020000000200000000100040000000000000200000000000000000000000000000000000000000000000080000080000000808000800000008000800080800000C0C0C000808080000000FF0000FF000000FFFF00FF000000FF00FF00FFFF0000FFFFFF00FFFFFFFFFFFFFFFFFFFFFFFFFFFFFFFF
1004
FFFFFFFFFFFFFFFFFFFFFFFFFFFFFFFFFFFFFFFFFFFFFFFFFFFFFFFFFFFFFFFFFFFFFFFFFFFFFFFFFFFFFFFFFFFFFFFFFFFFFFFFFFFFFFFFFFFFFFFFFFFFFFFFFFFFFFFFFFFFFFFFFFFFFFFFFFFFFFFFFFFFFFFFFFFFFFFFFFFFFFFFFFFFFFFFFFFFFFFFFFFFFFFFFFFFFFFFFFFFFFFFFFFFFFFFFFFFFFFF
1004
FFFFFFFFFFFFFFFFFFFFFFFFFFFFFFFFFFFFFFFFFFFFFFFFFFFFFFFFFFFFFFFFFFFFFFFFFFFFFFFFFFFFFFFFFFFFFFFFFFFFFFFFFFFFFFFFFFFFFFFFFFFFFFFFFFFFFFFFFFFFFFFFFFFFFFFFFFFFFFFFFFFFFFFFFFFFFFFFFFFFFFFFFFFFFFFFFFFFFFFFFFFFFFFFFFFFFFFFFFFFFFFFFFFFFFFFFFFFFFFF
1004
FFFFFFFFFFFFFFFFFFFFFFFFFFFFFFFFFFFFFFFFFFFFFFFFFFFFFFFFFFFFFFFFFFFFFFFFFFFFFFFFFFFFFFFFFFFFFFFFFFFFFFFFFFFFFFFFFFFFFFFFFFFFFFFFFFFFFFFFFFFFFFFFFFFFFFFFFFFFFFFFFFFFFFFFFFFFFFFFFFFFFFFFFFFFFFFFFFFFFFFFFFFFFFFFFFFFFFFFFFFFFFFFFFFFFFFFFFFFFFFF
1004
FFFFFFFFFFFFFFFFFFFFFFFFFFFFFFFFFFFFFFFFFFFFFFFFFFFFFFFFFFFFFFFFFFFFFFFFFFFFFFFFFFFFFFFFFFFFFFFFFFFFFFFFFFFFFFFFFFFFFFFFFFFFFFFFFFFFFFFFFFFFFFFFFFFFFFFFFFFFFFFFFFFFFFFFFFFFFFFFFFFFFFFFFFFFFFFFFFFFFFFFFFFFFFFFFFFFFFFFFFFFFFFFFFFFFFFFFFFFFFFF
1004
FFFFFFFFFFFFFFFFFFFFFFFFFFFFFFFF
  0
ENDTAB
  0
ENDSEC
  0
SECTION
  2
BLOCKS
  0
BLOCK
  5
2E
100
AcDbEntity
  8
0
100
AcDbBlockBegin
  2
*MODEL_SPACE
 70
     0
 10
0.0
 20
0.0
 30
0.0
  3
*MODEL_SPACE
  1

  0
ENDBLK
  5
2F
100
AcDbEntity
  8
0
100
AcDbBlockEnd
  0
BLOCK
  5
2C
100
AcDbEntity
 67
     1
  8
0
100
AcDbBlockBegin
  2
*PAPER_SPACE
 70
     0
 10
0.0
 20
0.0
 30
0.0
  3
*PAPER_SPACE
  1

  0
ENDBLK
  5
2D
100
AcDbEntity
 67
     1
  8
0
100
AcDbBlockEnd
  0
BLOCK
  5
69D
100
AcDbEntity
  8
0
100
AcDbBlockBegin
  2
BNC-SIDE
 70
     0
 10
0.0
 20
0.0
 30
0.0
  3
BNC-SIDE
  1

  0
LINE
  5
67F
100
AcDbEntity
  8
0
100
AcDbLine
 10
-0.032
 20
0.219
 30
0.0
 11
0.0
 21
0.219
 31
0.0
  0
LINE
  5
680
100
AcDbEntity
  8
0
100
AcDbLine
 10
-0.032
 20
-0.219
 30
0.0
 11
0.0
 21
-0.219
 31
0.0
  0
LINE
  5
681
100
AcDbEntity
  8
0
100
AcDbLine
 10
-0.561
 20
-0.043
 30
0.0
 11
-0.408
 21
-0.043
 31
0.0
  0
LINE
  5
682
100
AcDbEntity
  8
0
100
AcDbLine
 10
-0.561
 20
0.043
 30
0.0
 11
-0.408
 21
0.043
 31
0.0
  0
LINE
  5
683
100
AcDbEntity
  8
0
100
AcDbLine
 10
-0.561
 20
-0.043
 30
0.0
 11
-0.561
 21
0.043
 31
0.0
  0
LINE
  5
684
100
AcDbEntity
  8
0
100
AcDbLine
 10
-0.309202
 20
-0.181539
 30
0.0
 11
-0.283789
 21
0.1875
 31
0.0
  0
LINE
  5
685
100
AcDbEntity
  8
0
100
AcDbLine
 10
-0.408
 20
-0.075
 30
0.0
 11
-0.408
 21
0.075
 31
0.0
  0
LINE
  5
686
100
AcDbEntity
  8
0
100
AcDbLine
 10
-0.318
 20
-0.1625
 30
0.0
 11
-0.318
 21
0.1625
 31
0.0
  0
LINE
  5
687
100
AcDbEntity
  8
0
100
AcDbLine
 10
-0.109139
 20
-0.1875
 30
0.0
 11
-0.083315
 21
0.1875
 31
0.0
  0
LINE
  5
688
100
AcDbEntity
  8
0
100
AcDbLine
 10
-0.149234
 20
-0.1875
 30
0.0
 11
-0.12341
 21
0.1875
 31
0.0
  0
LINE
  5
689
100
AcDbEntity
  8
0
100
AcDbLine
 10
-0.189329
 20
-0.1875
 30
0.0
 11
-0.163505
 21
0.1875
 31
0.0
  0
LINE
  5
68A
100
AcDbEntity
  8
0
100
AcDbLine
 10
-0.229423
 20
-0.1875
 30
0.0
 11
-0.2036
 21
0.1875
 31
0.0
  0
LINE
  5
68B
100
AcDbEntity
  8
0
100
AcDbLine
 10
-0.269518
 20
-0.1875
 30
0.0
 11
-0.243694
 21
0.1875
 31
0.0
  0
LINE
  5
68C
100
AcDbEntity
  8
0
100
AcDbLine
 10
-0.032
 20
-0.219
 30
0.0
 11
-0.032
 21
0.219
 31
0.0
  0
LINE
  5
68D
100
AcDbEntity
  8
0
100
AcDbLine
 10
-0.293
 20
-0.1875
 30
0.0
 11
-0.032
 21
-0.1875
 31
0.0
  0
ARC
  5
68E
100
AcDbEntity
  8
0
100
AcDbCircle
 10
-0.293
 20
-0.1625
 30
0.0
 40
0.025
100
AcDbArc
 50
180.0
 51
270.0
  0
LINE
  5
68F
100
AcDbEntity
  8
0
100
AcDbLine
 10
-0.383
 20
-0.1
 30
0.0
 11
-0.318
 21
-0.1
 31
0.0
  0
ARC
  5
690
100
AcDbEntity
  8
0
100
AcDbCircle
 10
-0.383
 20
-0.075
 30
0.0
 40
0.025
100
AcDbArc
 50
180.0
 51
270.0
  0
LINE
  5
691
100
AcDbEntity
  8
0
100
AcDbLine
 10
-0.293
 20
0.1875
 30
0.0
 11
-0.032
 21
0.1875
 31
0.0
  0
LINE
  5
692
100
AcDbEntity
  8
0
100
AcDbLine
 10
-0.383
 20
0.1
 30
0.0
 11
-0.318
 21
0.1
 31
0.0
  0
ARC
  5
693
100
AcDbEntity
  8
0
100
AcDbCircle
 10
-0.383
 20
0.075
 30
0.0
 40
0.025
100
AcDbArc
 50
90.0
 51
180.0
  0
ARC
  5
694
100
AcDbEntity
  8
0
100
AcDbCircle
 10
-0.293
 20
0.1625
 30
0.0
 40
0.025
100
AcDbArc
 50
90.0
 51
180.0
  0
CIRCLE
  5
695
100
AcDbEntity
  8
0
100
AcDbCircle
 10
0.29
 20
0.0
 30
0.0
 40
0.04
  0
LINE
  5
696
100
AcDbEntity
  8
0
100
AcDbLine
 10
0.0
 20
-0.24475
 30
0.0
 11
0.0
 21
0.24475
 31
0.0
  0
LINE
  5
697
100
AcDbEntity
  8
0
100
AcDbLine
 10
0.045
 20
-0.24475
 30
0.0
 11
0.045
 21
0.24475
 31
0.0
  0
LINE
  5
698
100
AcDbEntity
  8
0
100
AcDbLine
 10
0.465
 20
-0.18775
 30
0.0
 11
0.465
 21
0.18775
 31
0.0
  0
LINE
  5
699
100
AcDbEntity
  8
0
100
AcDbLine
 10
0.465
 20
-0.18775
 30
0.0
 11
0.045
 21
-0.18775
 31
0.0
  0
LINE
  5
69A
100
AcDbEntity
  8
0
100
AcDbLine
 10
0.0
 20
-0.24475
 30
0.0
 11
0.045
 21
-0.24475
 31
0.0
  0
LINE
  5
69B
100
AcDbEntity
  8
0
100
AcDbLine
 10
0.465
 20
0.18775
 30
0.0
 11
0.045
 21
0.18775
 31
0.0
  0
LINE
  5
69C
100
AcDbEntity
  8
0
100
AcDbLine
 10
0.0
 20
0.24475
 30
0.0
 11
0.045
 21
0.24475
 31
0.0
  0
ENDBLK
  5
69E
100
AcDbEntity
  8
0
100
AcDbBlockEnd
  0
BLOCK
  5
6C4
100
AcDbEntity
  8
0
100
AcDbBlockBegin
  2
TOGGLE-SIDE
 70
     0
 10
0.0
 20
0.0
 30
0.0
  3
TOGGLE-SIDE
  1

  0
LINE
  5
6A1
100
AcDbEntity
  8
DIM1
100
AcDbLine
 10
-0.22
 20
0.051214
 30
0.0
 11
-0.543212
 21
-0.02044
 31
0.0
  0
LINE
  5
6A2
100
AcDbEntity
  8
DIM1
100
AcDbLine
 10
-0.22
 20
-0.051214
 30
0.0
 11
-0.521568
 21
-0.11807
 31
0.0
  0
LWPOLYLINE
  5
6A3
100
AcDbEntity
  8
DIM1
100
AcDbPolyline
 90
        4
 70
     1
 43
0.0
 10
0.0
 20
-0.16
 10
0.0
 20
0.16
 10
0.34
 20
0.16
 10
0.34
 20
-0.16
  0
LWPOLYLINE
  5
6A9
100
AcDbEntity
  8
DIM1
100
AcDbPolyline
 90
        4
 70
     1
 43
0.0
 10
-0.22
 20
-0.0875
 10
-0.22
 20
0.0875
 10
0.0
 20
0.0875
 10
0.0
 20
-0.0875
  0
LINE
  5
6AF
100
AcDbEntity
  8
DIM1
100
AcDbLine
 10
-0.22
 20
0.0875
 30
0.0
 11
-0.203719
 21
-0.0875
 31
0.0
  0
LINE
  5
6B0
100
AcDbEntity
  8
DIM1
100
AcDbLine
 10
-0.2
 20
0.0875
 30
0.0
 11
-0.183719
 21
-0.0875
 31
0.0
  0
LINE
  5
6B1
100
AcDbEntity
  8
DIM1
100
AcDbLine
 10
-0.14
 20
0.0875
 30
0.0
 11
-0.123719
 21
-0.0875
 31
0.0
  0
LINE
  5
6B2
100
AcDbEntity
  8
DIM1
100
AcDbLine
 10
-0.12
 20
0.0875
 30
0.0
 11
-0.103719
 21
-0.0875
 31
0.0
  0
LINE
  5
6B3
100
AcDbEntity
  8
DIM1
100
AcDbLine
 10
-0.1
 20
0.0875
 30
0.0
 11
-0.083719
 21
-0.0875
 31
0.0
  0
LINE
  5
6B4
100
AcDbEntity
  8
DIM1
100
AcDbLine
 10
-0.08
 20
0.0875
 30
0.0
 11
-0.063719
 21
-0.0875
 31
0.0
  0
LINE
  5
6B5
100
AcDbEntity
  8
DIM1
100
AcDbLine
 10
-0.06
 20
0.0875
 30
0.0
 11
-0.043719
 21
-0.0875
 31
0.0
  0
LINE
  5
6B6
100
AcDbEntity
  8
DIM1
100
AcDbLine
 10
-0.04
 20
0.0875
 30
0.0
 11
-0.023719
 21
-0.0875
 31
0.0
  0
LINE
  5
6B7
100
AcDbEntity
  8
DIM1
100
AcDbLine
 10
-0.02
 20
0.0875
 30
0.0
 11
-0.003719
 21
-0.0875
 31
0.0
  0
LINE
  5
6B8
100
AcDbEntity
  8
DIM1
100
AcDbLine
 10
-0.18
 20
0.0875
 30
0.0
 11
-0.163719
 21
-0.0875
 31
0.0
  0
LINE
  5
6B9
100
AcDbEntity
  8
DIM1
100
AcDbLine
 10
-0.16
 20
0.0875
 30
0.0
 11
-0.143719
 21
-0.0875
 31
0.0
  0
LINE
  5
6BA
100
AcDbEntity
  8
DIM1
100
AcDbLine
 10
0.47
 20
0.015
 30
0.0
 11
0.47
 21
-0.015
 31
0.0
  0
LINE
  5
6BB
100
AcDbEntity
  8
DIM1
100
AcDbLine
 10
0.34
 20
-0.085
 30
0.0
 11
0.47
 21
-0.085
 31
0.0
  0
LINE
  5
6BC
100
AcDbEntity
  8
DIM1
100
AcDbLine
 10
0.34
 20
-0.115
 30
0.0
 11
0.47
 21
-0.115
 31
0.0
  0
LINE
  5
6BD
100
AcDbEntity
  8
DIM1
100
AcDbLine
 10
0.47
 20
-0.085
 30
0.0
 11
0.47
 21
-0.115
 31
0.0
  0
LINE
  5
6BE
100
AcDbEntity
  8
DIM1
100
AcDbLine
 10
0.34
 20
-0.015
 30
0.0
 11
0.47
 21
-0.015
 31
0.0
  0
LINE
  5
6BF
100
AcDbEntity
  8
DIM1
100
AcDbLine
 10
0.34
 20
0.115
 30
0.0
 11
0.47
 21
0.115
 31
0.0
  0
LINE
  5
6C0
100
AcDbEntity
  8
DIM1
100
AcDbLine
 10
0.34
 20
0.085
 30
0.0
 11
0.47
 21
0.085
 31
0.0
  0
LINE
  5
6C1
100
AcDbEntity
  8
DIM1
100
AcDbLine
 10
0.47
 20
0.115
 30
0.0
 11
0.47
 21
0.085
 31
0.0
  0
LINE
  5
6C2
100
AcDbEntity
  8
DIM1
100
AcDbLine
 10
0.34
 20
0.015
 30
0.0
 11
0.47
 21
0.015
 31
0.0
  0
ARC
  5
6C3
100
AcDbEntity
  8
DIM1
100
AcDbCircle
 10
-0.530835
 20
-0.06891
 30
0.0
 40
0.050025
100
AcDbArc
 50
104.324647
 51
280.675353
  0
ENDBLK
  5
6C5
100
AcDbEntity
  8
0
100
AcDbBlockEnd
  0
BLOCK
  5
ED3
100
AcDbEntity
  8
0
100
AcDbBlockBegin
  2
BNC
 70
     0
 10
0.0
 20
0.0
 30
0.0
  3
BNC
  1

  0
CIRCLE
  5
EC8
100
AcDbEntity
  8
0
100
AcDbCircle
 10
0.0
 20
0.0
 30
0.0
 40
0.2445
  0
CIRCLE
  5
EC9
100
AcDbEntity
  8
0
100
AcDbCircle
 10
0.0
 20
0.0
 30
0.0
 40
0.16925
  0
CIRCLE
  5
ECA
100
AcDbEntity
  8
0
100
AcDbCircle
 10
0.0
 20
0.0
 30
0.0
 40
0.18925
  0
CIRCLE
  5
ECB
100
AcDbEntity
  8
0
100
AcDbCircle
 10
0.0
 20
0.0
 30
0.0
 40
0.0875
  0
CIRCLE
  5
ECC
100
AcDbEntity
  8
0
100
AcDbCircle
 10
0.0
 20
0.0
 30
0.0
 40
0.0335
  0
ARC
  5
ECD
100
AcDbEntity
  8
0
100
AcDbCircle
 10
0.0
 20
0.0
 30
0.0
 40
0.2175
100
AcDbArc
 50
169.804264
 51
190.195736
  0
LINE
  5
ECE
100
AcDbEntity
  8
0
100
AcDbLine
 10
-0.214065
 20
-0.0385
 30
0.0
 11
-0.185293
 21
-0.0385
 31
0.0
  0
LINE
  5
ECF
100
AcDbEntity
  8
0
100
AcDbLine
 10
-0.214065
 20
0.0385
 30
0.0
 11
-0.185293
 21
0.0385
 31
0.0
  0
ARC
  5
ED0
100
AcDbEntity
  8
0
100
AcDbCircle
 10
0.0
 20
0.0
 30
0.0
 40
0.2175
100
AcDbArc
 50
349.804264
 51
10.195736
  0
LINE
  5
ED1
100
AcDbEntity
  8
0
100
AcDbLine
 10
0.185293
 20
-0.0385
 30
0.0
 11
0.214065
 21
-0.0385
 31
0.0
  0
LINE
  5
ED2
100
AcDbEntity
  8
0
100
AcDbLine
 10
0.185293
 20
0.0385
 30
0.0
 11
0.214065
 21
0.0385
 31
0.0
  0
ENDBLK
  5
ED4
100
AcDbEntity
  8
0
100
AcDbBlockEnd
  0
BLOCK
  5
FA3
100
AcDbEntity
  8
0
100
AcDbBlockBegin
  2
LOGO
 70
     0
 10
0.0
 20
0.0
 30
0.0
  3
LOGO
  1

  0
SOLID
  5
EDC
100
AcDbEntity
  8
0
100
AcDbTrace
 10
0.3969
 20
0.168869
 30
0.34938
 11
0.283625
 21
0.168869
 31
0.34938
 12
0.3969
 22
0.122467
 32
0.34938
 13
0.283625
 23
0.122467
 33
0.34938
  0
SOLID
  5
EDD
100
AcDbEntity
  8
0
100
AcDbTrace
 10
-0.000246
 20
0.275321
 30
0.34938
 11
0.229034
 21
0.275321
 31
0.34938
 12
-0.000246
 22
0.230284
 32
0.34938
 13
0.229034
 23
0.230284
 33
0.34938
  0
SOLID
  5
EDE
100
AcDbEntity
  8
0
100
AcDbTrace
 10
0.229034
 20
0.275321
 30
0.34938
 11
0.283625
 21
0.275321
 31
0.34938
 12
0.229034
 22
0.002368
 32
0.34938
 13
0.283625
 23
0.002368
 33
0.34938
  0
SOLID
  5
EDF
100
AcDbEntity
  8
0
100
AcDbTrace
 10
0.087099
 20
0.002368
 30
0.34938
 11
0.141689
 21
0.002368
 31
0.34938
 12
0.087099
 22
0.230284
 32
0.34938
 13
0.141689
 23
0.230284
 33
0.34938
  0
LWPOLYLINE
  5
EE0
100
AcDbEntity
  8
0
100
AcDbPolyline
 90
        7
 70
     0
 43
0.0
 38
0.34938
 10
1.654341
 20
0.173622
 42
0.001957
 10
1.732505
 20
0.157697
 42
-0.213696
 10
1.785667
 20
0.120541
 42
-0.207559
 10
1.793018
 20
0.06449
 42
-0.231198
 10
1.741309
 20
0.007092
 42
-0.176336
 10
1.633376
 20
0.003421
 42
-0.211591
 10
1.575984
 20
0.055002
  0
LWPOLYLINE
  5
EE9
100
AcDbEntity
  8
0
100
AcDbPolyline
 90
       14
 70
     0
 43
0.0
 38
0.34938
 10
1.5793
 20
0.084397
 10
1.623066
 20
0.084397
 42
0.302044
 10
1.651056
 20
0.043161
 42
0.26537
 10
1.726099
 20
0.053047
 42
0.635606
 10
1.713987
 20
0.109502
 42
-0.000944
 10
1.624514
 20
0.130353
 42
-0.344245
 10
1.571718
 20
0.196061
 42
-0.322222
 10
1.625865
 20
0.273592
 42
-0.141736
 10
1.718419
 20
0.278792
 42
-0.333774
 10
1.784829
 20
0.200112
 10
1.730856
 20
0.200112
 42
0.301979
 10
1.705072
 20
0.235944
 42
0.197288
 10
1.647834
 20
0.23428
 42
0.728374
 10
1.654341
 20
0.173622
 42
0.001957
  0
LINE
  5
EF9
100
AcDbEntity
  8
0
100
AcDbLine
 10
0.990573
 20
0.275321
 30
0.34938
 11
0.933253
 21
0.275321
 31
0.34938
  0
LINE
  5
EFA
100
AcDbEntity
  8
0
100
AcDbLine
 10
0.933253
 20
0.002368
 30
0.34938
 11
1.12705
 21
0.002368
 31
0.34938
  0
SOLID
  5
EFB
100
AcDbEntity
  8
0
100
AcDbTrace
 10
0.581308
 20
0.001222
 30
0.34938
 11
0.581308
 21
0.03571
 31
0.34938
 12
0.652536
 22
0.025747
 32
0.34938
 13
0.633389
 23
0.051805
 33
0.34938
  0
LWPOLYLINE
  5
EFC
100
AcDbEntity
  8
0
100
AcDbPolyline
 90
        2
 70
     0
 43
0.010918
 38
0.34938
 10
0.463009
 20
0.092598
 42
0.761639
 10
0.700334
 20
0.095097
 42
0.761639
  0
LWPOLYLINE
  5
F00
100
AcDbEntity
  8
0
100
AcDbPolyline
 90
        2
 70
     0
 43
0.010918
 38
0.34938
 10
0.698301
 20
0.191392
 42
0.741471
 10
0.463464
 20
0.190005
 42
0.741471
  0
LWPOLYLINE
  5
F04
100
AcDbEntity
  8
0
100
AcDbPolyline
 90
        4
 70
     1
 43
0.010918
 38
0.34938
 10
0.514044
 20
0.199799
 42
0.228527
 10
0.515319
 20
0.075867
 42
0.623004
 10
0.64663
 20
0.076281
 42
0.229006
 10
0.647011
 20
0.20034
 42
0.632312
  0
SOLID
  5
F0A
100
AcDbEntity
  8
0
100
AcDbTrace
 10
0.684704
 20
0.227311
 30
0.34938
 11
0.644111
 21
0.208151
 31
0.34938
 12
0.630325
 22
0.27023
 32
0.34938
 13
0.616539
 23
0.231143
 33
0.34938
  0
SOLID
  5
F0B
100
AcDbEntity
  8
0
100
AcDbTrace
 10
0.652536
 20
0.025747
 30
0.34938
 11
0.633389
 21
0.051805
 31
0.34938
 12
0.690831
 22
0.068666
 32
0.34938
 13
0.658663
 23
0.102387
 33
0.34938
  0
SOLID
  5
F0C
100
AcDbEntity
  8
0
100
AcDbTrace
 10
0.630325
 20
0.27023
 30
0.34938
 11
0.616539
 21
0.231143
 31
0.34938
 12
0.580302
 22
0.280859
 32
0.34938
 13
0.579149
 23
0.24163
 33
0.34938
  0
SOLID
  5
F0D
100
AcDbEntity
  8
0
100
AcDbTrace
 10
0.470766
 20
0.21394
 30
0.34938
 11
0.509968
 21
0.186249
 31
0.34938
 12
0.454935
 22
0.138408
 32
0.34938
 13
0.499357
 23
0.134576
 33
0.34938
  0
SOLID
  5
F0E
100
AcDbEntity
  8
0
100
AcDbTrace
 10
0.507662
 20
0.255476
 30
0.34938
 11
0.528417
 21
0.224324
 31
0.34938
 12
0.470766
 22
0.21394
 32
0.34938
 13
0.509968
 23
0.186249
 33
0.34938
  0
SOLID
  5
F0F
100
AcDbEntity
  8
0
100
AcDbTrace
 10
0.474849
 20
0.060235
 30
0.34938
 11
0.513909
 21
0.074797
 31
0.34938
 12
0.532291
 22
0.010419
 32
0.34938
 13
0.552204
 23
0.038776
 33
0.34938
  0
SOLID
  5
F10
100
AcDbEntity
  8
0
100
AcDbTrace
 10
0.3969
 20
0.275321
 30
0.34938
 11
0.451491
 21
0.275321
 31
0.34938
 12
0.3969
 22
0.002368
 32
0.34938
 13
0.451491
 23
0.002368
 33
0.34938
  0
SOLID
  5
F11
100
AcDbEntity
  8
0
100
AcDbTrace
 10
0.454935
 20
0.138408
 30
0.34938
 11
0.499357
 21
0.134576
 31
0.34938
 12
0.474849
 22
0.060235
 32
0.34938
 13
0.513909
 23
0.074797
 33
0.34938
  0
LWPOLYLINE
  5
F12
100
AcDbEntity
  8
0
100
AcDbPolyline
 90
        2
 70
     0
 43
0.010918
 38
0.34938
 10
0.463464
 20
0.190005
 42
0.143054
 10
0.463009
 20
0.092598
 42
0.143054
  0
SOLID
  5
F16
100
AcDbEntity
  8
0
100
AcDbTrace
 10
0.532291
 20
0.010419
 30
0.34938
 11
0.552204
 21
0.038776
 31
0.34938
 12
0.581308
 22
0.001222
 32
0.34938
 13
0.581308
 23
0.03571
 33
0.34938
  0
SOLID
  5
F17
100
AcDbEntity
  8
0
100
AcDbTrace
 10
0.580302
 20
0.280859
 30
0.34938
 11
0.579149
 21
0.24163
 31
0.34938
 12
0.507662
 22
0.255476
 32
0.34938
 13
0.528417
 23
0.224324
 33
0.34938
  0
SOLID
  5
F18
100
AcDbEntity
  8
0
100
AcDbTrace
 10
0.876074
 20
0.009958
 30
0.34938
 11
0.926705
 21
0.015279
 31
0.34938
 12
0.874125
 22
0.016303
 32
0.34938
 13
0.927759
 23
0.020455
 33
0.34938
  0
SOLID
  5
F19
100
AcDbEntity
  8
0
100
AcDbTrace
 10
0.878652
 20
0.002368
 30
0.34938
 11
0.934928
 21
0.002368
 31
0.34938
 12
0.876074
 22
0.009958
 32
0.34938
 13
0.926705
 23
0.015279
 33
0.34938
  0
SOLID
  5
F1A
100
AcDbEntity
  8
0
100
AcDbTrace
 10
0.878499
 20
0.216933
 30
0.34938
 11
0.920883
 21
0.238987
 31
0.34938
 12
0.85985
 22
0.236725
 32
0.34938
 13
0.879064
 23
0.267827
 33
0.34938
  0
SOLID
  5
F1B
100
AcDbEntity
  8
0
100
AcDbTrace
 10
0.88415
 20
0.194313
 30
0.34938
 11
0.926534
 21
0.180741
 31
0.34938
 12
0.878499
 22
0.216933
 32
0.34938
 13
0.920883
 23
0.238987
 33
0.34938
  0
SOLID
  5
F1C
100
AcDbEntity
  8
0
100
AcDbTrace
 10
0.865126
 20
0.151636
 30
0.34938
 11
0.885986
 21
0.141911
 31
0.34938
 12
0.88415
 22
0.194313
 32
0.34938
 13
0.926534
 23
0.180741
 33
0.34938
  0
SOLID
  5
F1D
100
AcDbEntity
  8
0
100
AcDbTrace
 10
0.871006
 20
0.081775
 30
0.34938
 11
0.915289
 21
0.097284
 31
0.34938
 12
0.858459
 22
0.098762
 32
0.34938
 13
0.887981
 23
0.119441
 33
0.34938
  0
SOLID
  5
F1E
100
AcDbEntity
  8
0
100
AcDbTrace
 10
0.869912
 20
0.065481
 30
0.34938
 11
0.921776
 21
0.081179
 31
0.34938
 12
0.871006
 22
0.081775
 32
0.34938
 13
0.915289
 23
0.097284
 33
0.34938
  0
SOLID
  5
F1F
100
AcDbEntity
  8
0
100
AcDbTrace
 10
0.869912
 20
0.065481
 30
0.34938
 11
0.874125
 21
0.016303
 31
0.34938
 12
0.921776
 22
0.081179
 32
0.34938
 13
0.927759
 23
0.020455
 33
0.34938
  0
LWPOLYLINE
  5
F20
100
AcDbEntity
  8
0
100
AcDbPolyline
 90
        2
 70
     0
 43
0.010918
 38
0.34938
 10
0.916343
 20
0.080643
 42
0.358135
 10
0.869897
 20
0.127031
 42
0.358135
  0
LWPOLYLINE
  5
F24
100
AcDbEntity
  8
0
100
AcDbPolyline
 90
        2
 70
     0
 43
0.010918
 38
0.34938
 10
0.869751
 20
0.137882
 42
0.939934
 10
0.861571
 20
0.269862
 42
0.939934
  0
SOLID
  5
F28
100
AcDbEntity
  8
0
100
AcDbTrace
 10
0.865126
 20
0.151636
 30
0.34938
 11
0.885986
 21
0.141911
 31
0.34938
 12
0.836424
 22
0.152601
 32
0.34938
 13
0.870426
 23
0.132465
 33
0.34938
  0
SOLID
  5
F29
100
AcDbEntity
  8
0
100
AcDbTrace
 10
0.85985
 20
0.236725
 30
0.34938
 11
0.879064
 21
0.267827
 31
0.34938
 12
0.836424
 22
0.233709
 32
0.34938
 13
0.861571
 23
0.275321
 33
0.34938
  0
SOLID
  5
F2A
100
AcDbEntity
  8
0
100
AcDbTrace
 10
0.843648
 20
0.113502
 30
0.34938
 11
0.870426
 21
0.132465
 31
0.34938
 12
0.819831
 22
0.111455
 32
0.34938
 13
0.836424
 23
0.152601
 33
0.34938
  0
SOLID
  5
F2B
100
AcDbEntity
  8
0
100
AcDbTrace
 10
0.858459
 20
0.098762
 30
0.34938
 11
0.887981
 21
0.119441
 31
0.34938
 12
0.843648
 22
0.113502
 32
0.34938
 13
0.870426
 23
0.132465
 33
0.34938
  0
SOLID
  5
F2C
100
AcDbEntity
  8
0
100
AcDbTrace
 10
0.766667
 20
0.152601
 30
0.34938
 11
0.766667
 21
0.111455
 31
0.34938
 12
0.836424
 22
0.152601
 32
0.34938
 13
0.819831
 23
0.111455
 33
0.34938
  0
SOLID
  5
F2D
100
AcDbEntity
  8
0
100
AcDbTrace
 10
0.766667
 20
0.233709
 30
0.34938
 11
0.766667
 21
0.269374
 31
0.34938
 12
0.836424
 22
0.233709
 32
0.34938
 13
0.861571
 23
0.275321
 33
0.34938
  0
LWPOLYLINE
  5
F2E
100
AcDbEntity
  8
0
100
AcDbPolyline
 90
        2
 70
     0
 43
0.010918
 38
0.34938
 10
0.836424
 20
0.147142
 42
1.0
 10
0.836424
 20
0.239168
 42
1.0
  0
SOLID
  5
F32
100
AcDbEntity
  8
0
100
AcDbTrace
 10
0.70768
 20
0.149904
 30
0.34938
 11
0.660195
 21
0.154503
 31
0.34938
 12
0.684704
 22
0.227311
 32
0.34938
 13
0.644111
 23
0.208151
 33
0.34938
  0
LWPOLYLINE
  5
F33
100
AcDbEntity
  8
0
100
AcDbPolyline
 90
        2
 70
     0
 43
0.010918
 38
0.34938
 10
0.861571
 20
0.269862
 10
0.710907
 20
0.269862
  0
LWPOLYLINE
  5
F37
100
AcDbEntity
  8
0
100
AcDbPolyline
 90
        2
 70
     0
 43
0.010918
 38
0.34938
 10
0.879564
 20
0.016769
 42
0.114836
 10
0.883327
 20
0.005188
 42
0.114836
  0
SOLID
  5
F3B
100
AcDbEntity
  8
0
100
AcDbTrace
 10
0.690831
 20
0.068666
 30
0.34938
 11
0.658663
 21
0.102387
 31
0.34938
 12
0.70768
 22
0.149904
 32
0.34938
 13
0.660195
 23
0.154503
 33
0.34938
  0
LWPOLYLINE
  5
F3C
100
AcDbEntity
  8
0
100
AcDbPolyline
 90
        2
 70
     0
 43
0.010918
 38
0.34938
 10
0.700334
 20
0.095097
 42
0.140695
 10
0.698301
 20
0.191392
 42
0.140695
  0
LWPOLYLINE
  5
F40
100
AcDbEntity
  8
0
100
AcDbPolyline
 90
        2
 70
     0
 43
0.010918
 38
0.34938
 10
0.875351
 20
0.065947
 42
0.389398
 10
0.819831
 20
0.116914
 42
0.389398
  0
SOLID
  5
F44
100
AcDbEntity
  8
0
100
AcDbTrace
 10
0.710907
 20
0.002368
 30
0.34938
 11
0.710907
 21
0.275321
 31
0.34938
 12
0.766667
 22
0.002368
 32
0.34938
 13
0.766667
 23
0.269374
 33
0.34938
  0
LWPOLYLINE
  5
F45
100
AcDbEntity
  8
0
100
AcDbPolyline
 90
        2
 70
     0
 43
0.010918
 38
0.34938
 10
0.922326
 20
0.019919
 42
0.095067
 10
0.926686
 20
0.005189
 42
0.140492
  0
LINE
  5
F49
100
AcDbEntity
  8
0
100
AcDbLine
 10
0.933253
 20
0.275321
 30
0.34938
 11
0.933253
 21
0.002368
 31
0.34938
  0
LWPOLYLINE
  5
F4A
100
AcDbEntity
  8
0
100
AcDbPolyline
 90
        4
 70
     0
 43
0.0
 38
0.34938
 10
1.124416
 20
0.04877
 10
1.204842
 20
0.275321
 10
1.266256
 20
0.275321
 10
1.356301
 20
0.021673
  0
LWPOLYLINE
  5
F50
100
AcDbEntity
  8
0
100
AcDbPolyline
 90
        4
 70
     0
 43
0.0
 38
0.34938
 10
1.287756
 20
0.061053
 10
1.183342
 20
0.061053
 10
1.165263
 20
0.002368
 10
1.107943
 20
0.002368
  0
LINE
  5
F56
100
AcDbEntity
  8
0
100
AcDbLine
 10
1.195955
 20
0.101996
 30
0.34938
 11
1.275143
 21
0.101996
 31
0.34938
  0
LINE
  5
F57
100
AcDbEntity
  8
0
100
AcDbLine
 10
1.275143
 20
0.101996
 30
0.34938
 11
1.235549
 21
0.230521
 31
0.34938
  0
LINE
  5
F58
100
AcDbEntity
  8
0
100
AcDbLine
 10
1.235549
 20
0.230521
 30
0.34938
 11
1.195955
 21
0.101996
 31
0.34938
  0
LINE
  5
F59
100
AcDbEntity
  8
0
100
AcDbLine
 10
1.124416
 20
0.04877
 30
0.34938
 11
0.990573
 21
0.04877
 31
0.34938
  0
LINE
  5
F5A
100
AcDbEntity
  8
0
100
AcDbLine
 10
0.990573
 20
0.04877
 30
0.34938
 11
0.990573
 21
0.275321
 31
0.34938
  0
ARC
  5
F5B
100
AcDbEntity
  8
0
100
AcDbCircle
 10
1.47913
 20
0.249391
 30
0.34938
 40
0.111232
100
AcDbArc
 50
295.378395
 51
313.157563
  0
ARC
  5
F5C
100
AcDbEntity
  8
0
100
AcDbCircle
 10
1.488851
 20
0.058557
 30
0.34938
 40
0.097985
100
AcDbArc
 50
41.821431
 51
67.21117
  0
ARC
  5
F5D
100
AcDbEntity
  8
0
100
AcDbCircle
 10
1.483826
 20
0.163076
 30
0.34938
 40
0.112245
100
AcDbArc
 50
58.670206
 51
90.0
  0
ARC
  5
F5E
100
AcDbEntity
  8
0
100
AcDbCircle
 10
1.488684
 20
0.118086
 30
0.34938
 40
0.115718
100
AcDbArc
 50
270.0
 51
297.452648
  0
LINE
  5
F5F
100
AcDbEntity
  8
0
100
AcDbLine
 10
1.479912
 20
0.234378
 30
0.34938
 11
1.410892
 21
0.234378
 31
0.34938
  0
LINE
  5
F60
100
AcDbEntity
  8
0
100
AcDbLine
 10
1.410892
 20
0.234378
 30
0.34938
 11
1.410892
 21
0.16614
 31
0.34938
  0
LINE
  5
F61
100
AcDbEntity
  8
0
100
AcDbLine
 10
1.410892
 20
0.16614
 30
0.34938
 11
1.479912
 21
0.16614
 31
0.34938
  0
ARC
  5
F62
100
AcDbEntity
  8
0
100
AcDbCircle
 10
1.479912
 20
0.200259
 30
0.34938
 40
0.034119
100
AcDbArc
 50
270.0
 51
90.000005
  0
LINE
  5
F63
100
AcDbEntity
  8
0
100
AcDbLine
 10
1.483439
 20
0.123832
 30
0.34938
 11
1.410892
 21
0.123832
 31
0.34938
  0
LINE
  5
F64
100
AcDbEntity
  8
0
100
AcDbLine
 10
1.483826
 20
0.275321
 30
0.34938
 11
1.356301
 21
0.275321
 31
0.34938
  0
LINE
  5
F65
100
AcDbEntity
  8
0
100
AcDbLine
 10
1.410892
 20
0.044676
 30
0.34938
 11
1.476401
 21
0.044676
 31
0.34938
  0
ARC
  5
F66
100
AcDbEntity
  8
0
100
AcDbCircle
 10
1.476401
 20
0.093136
 30
0.34938
 40
0.04846
100
AcDbArc
 50
270.0
 51
313.227508
  0
LWPOLYLINE
  5
F67
100
AcDbEntity
  8
0
100
AcDbPolyline
 90
        3
 70
     0
 43
0.0
 38
0.34938
 10
1.363154
 20
0.002368
 10
1.305834
 20
0.002368
 10
1.287756
 20
0.061053
  0
LINE
  5
F6C
100
AcDbEntity
  8
0
100
AcDbLine
 10
1.356301
 20
0.002368
 30
0.34938
 11
1.488684
 21
0.002368
 31
0.34938
  0
LINE
  5
F6D
100
AcDbEntity
  8
0
100
AcDbLine
 10
1.356301
 20
0.275321
 30
0.34938
 11
1.356301
 21
0.021673
 31
0.34938
  0
LINE
  5
F6E
100
AcDbEntity
  8
0
100
AcDbLine
 10
1.410892
 20
0.123832
 30
0.34938
 11
1.410892
 21
0.044676
 31
0.34938
  0
ARC
  5
F6F
100
AcDbEntity
  8
0
100
AcDbCircle
 10
1.483439
 20
0.085648
 30
0.34938
 40
0.038184
100
AcDbArc
 50
313.227508
 51
90.0
  0
ARC
  5
F70
100
AcDbEntity
  8
0
100
AcDbCircle
 10
1.509849
 20
0.077346
 30
0.34938
 40
0.069808
100
AcDbArc
 50
5.797667
 51
41.821431
  0
ARC
  5
F71
100
AcDbEntity
  8
0
100
AcDbCircle
 10
1.510244
 20
0.206477
 30
0.34938
 40
0.061436
100
AcDbArc
 50
358.653261
 51
58.670206
  0
ARC
  5
F72
100
AcDbEntity
  8
0
100
AcDbCircle
 10
1.519575
 20
0.206257
 30
0.34938
 40
0.052103
100
AcDbArc
 50
313.157563
 51
358.653261
  0
ARC
  5
F73
100
AcDbEntity
  8
0
100
AcDbCircle
 10
1.509849
 20
0.077346
 30
0.34938
 40
0.069808
100
AcDbArc
 50
297.452648
 51
341.332312
  0
LWPOLYLINE
  5
F74
100
AcDbEntity
  8
0
100
AcDbPolyline
 90
        6
 70
     0
 43
0.005136
 38
0.34938
 10
1.875604
 20
0.25848
 42
0.342627
 10
1.850842
 20
0.232147
 42
0.294281
 10
1.868487
 20
0.198078
 42
0.273538
 10
1.932709
 20
0.198947
 42
0.20817
 10
1.949032
 20
0.222163
 42
0.418985
 10
1.923866
 20
0.25965
 42
0.418985
  0
SOLID
  5
F7C
100
AcDbEntity
  8
0
100
AcDbTrace
 10
1.836454
 20
0.072473
 30
0.34938
 11
1.964849
 21
0.153314
 31
0.34938
 12
1.836464
 22
0.046743
 32
0.34938
 13
1.964852
 23
0.1264
 33
0.34938
  0
SOLID
  5
F7D
100
AcDbEntity
  8
0
100
AcDbTrace
 10
1.836454
 20
0.154005
 30
0.34938
 11
1.964852
 21
0.154005
 31
0.34938
 12
1.836454
 22
0.127042
 32
0.34938
 13
1.964852
 23
0.127042
 33
0.34938
  0
SOLID
  5
F7E
100
AcDbEntity
  8
0
100
AcDbTrace
 10
1.964852
 20
0.044868
 30
0.34938
 11
1.836454
 21
0.044868
 31
0.34938
 12
1.964852
 22
0.071831
 32
0.34938
 13
1.836454
 23
0.071831
 33
0.34938
  0
SOLID
  5
F7F
100
AcDbEntity
  8
0
100
AcDbTrace
 10
1.836454
 20
-0.004565
 30
0.34938
 11
1.836454
 21
0.022398
 31
0.34938
 12
1.964852
 22
-0.004565
 32
0.34938
 13
1.964852
 23
0.022398
 33
0.34938
  0
SOLID
  5
F80
100
AcDbEntity
  8
0
100
AcDbTrace
 10
1.878119
 20
0.192202
 30
0.34938
 11
1.864941
 21
0.176447
 31
0.34938
 12
1.904474
 22
0.190086
 32
0.34938
 13
1.905886
 23
0.168216
 33
0.34938
  0
LWPOLYLINE
  5
F81
100
AcDbEntity
  8
0
100
AcDbPolyline
 90
        2
 70
     0
 43
0.005136
 38
0.34938
 10
1.872741
 20
0.174151
 42
0.270661
 10
1.945662
 20
0.185515
 42
0.270661
  0
LWPOLYLINE
  5
F85
100
AcDbEntity
  8
0
100
AcDbPolyline
 90
        2
 70
     0
 43
0.005136
 38
0.34938
 10
1.875529
 20
0.278407
 42
0.284121
 10
1.838437
 20
0.247379
 42
0.288845
  0
SOLID
  5
F89
100
AcDbEntity
  8
0
100
AcDbTrace
 10
1.853646
 20
0.21172
 30
0.34938
 11
1.838115
 21
0.205371
 31
0.34938
 12
1.878119
 22
0.192202
 32
0.34938
 13
1.864941
 23
0.176447
 33
0.34938
  0
SOLID
  5
F8A
100
AcDbEntity
  8
0
100
AcDbTrace
 10
1.851058
 20
0.238999
 30
0.34938
 11
1.836233
 21
0.245113
 31
0.34938
 12
1.853646
 22
0.21172
 32
0.34938
 13
1.838115
 23
0.205371
 33
0.34938
  0
SOLID
  5
F8B
100
AcDbEntity
  8
0
100
AcDbTrace
 10
1.867059
 20
0.256165
 30
0.34938
 11
1.854117
 21
0.270275
 31
0.34938
 12
1.851058
 22
0.238999
 32
0.34938
 13
1.836233
 23
0.245113
 33
0.34938
  0
LWPOLYLINE
  5
F8C
100
AcDbEntity
  8
0
100
AcDbPolyline
 90
        2
 70
     0
 43
0.005136
 38
0.34938
 10
1.838437
 20
0.247379
 42
0.398621
 10
1.872741
 20
0.174151
 42
0.398621
  0
SOLID
  5
F90
100
AcDbEntity
  8
0
100
AcDbTrace
 10
1.872479
 20
0.257553
 30
0.34938
 11
1.870809
 21
0.279779
 31
0.34938
 12
1.876003
 22
0.255943
 32
0.34938
 13
1.876003
 23
0.281062
 33
0.34938
  0
SOLID
  5
F91
100
AcDbEntity
  8
0
100
AcDbTrace
 10
1.867059
 20
0.256165
 30
0.34938
 11
1.854117
 21
0.270275
 31
0.34938
 12
1.872479
 22
0.257553
 32
0.34938
 13
1.870809
 23
0.279779
 33
0.34938
  0
SOLID
  5
F92
100
AcDbEntity
  8
0
100
AcDbTrace
 10
1.926919
 20
0.257989
 30
0.34938
 11
1.92965
 21
0.281568
 31
0.34938
 12
1.923391
 22
0.257126
 32
0.34938
 13
1.923391
 23
0.283097
 33
0.34938
  0
LWPOLYLINE
  5
F93
100
AcDbEntity
  8
0
100
AcDbPolyline
 90
        2
 70
     0
 43
0.005136
 38
0.34938
 10
1.960118
 20
0.253768
 42
0.261966
 10
1.923746
 20
0.280472
 42
0.265647
  0
SOLID
  5
F97
100
AcDbEntity
  8
0
100
AcDbTrace
 10
1.943043
 20
0.248492
 30
0.34938
 11
1.958902
 21
0.259144
 31
0.34938
 12
1.926919
 22
0.257989
 32
0.34938
 13
1.92965
 23
0.281568
 33
0.34938
  0
SOLID
  5
F98
100
AcDbEntity
  8
0
100
AcDbTrace
 10
1.949802
 20
0.226148
 30
0.34938
 11
1.966441
 21
0.217834
 31
0.34938
 12
1.943043
 22
0.248492
 32
0.34938
 13
1.958902
 23
0.259144
 33
0.34938
  0
SOLID
  5
F99
100
AcDbEntity
  8
0
100
AcDbTrace
 10
1.938623
 20
0.200947
 30
0.34938
 11
1.948242
 21
0.185098
 31
0.34938
 12
1.949802
 22
0.226148
 32
0.34938
 13
1.966441
 23
0.217834
 33
0.34938
  0
SOLID
  5
F9A
100
AcDbEntity
  8
0
100
AcDbTrace
 10
1.904474
 20
0.190086
 30
0.34938
 11
1.905886
 21
0.168216
 31
0.34938
 12
1.938623
 22
0.200947
 32
0.34938
 13
1.948242
 23
0.185098
 33
0.34938
  0
LWPOLYLINE
  5
F9B
100
AcDbEntity
  8
0
100
AcDbPolyline
 90
        2
 70
     0
 43
0.005136
 38
0.34938
 10
1.964592
 20
0.217581
 42
0.152191
 10
1.960118
 20
0.253768
 42
0.152191
  0
LWPOLYLINE
  5
F9F
100
AcDbEntity
  8
0
100
AcDbPolyline
 90
        2
 70
     0
 43
0.005136
 38
0.34938
 10
1.945662
 20
0.185515
 42
0.179001
 10
1.964592
 20
0.217581
 42
0.179001
  0
ENDBLK
  5
FA4
100
AcDbEntity
  8
0
100
AcDbBlockEnd
  0
BLOCK
  5
11B1
100
AcDbEntity
  8
0
100
AcDbBlockBegin
  2
TOGGLE-TOP
 70
     0
 10
0.0
 20
0.0
 30
0.0
  3
TOGGLE-TOP
  1

  0
CIRCLE
  5
11B2
100
AcDbEntity
  8
0
100
AcDbCircle
 10
0.0
 20
0.0
 30
0.0
 40
0.119852
  0
LINE
  5
11B3
100
AcDbEntity
  8
0
100
AcDbLine
 10
-0.0775
 20
0.134234
 30
0.0
 11
-0.155
 21
0.0
 31
0.0
  0
LINE
  5
11B4
100
AcDbEntity
  8
0
100
AcDbLine
 10
0.155
 20
0.0
 30
0.0
 11
0.0775
 21
0.134234
 31
0.0
  0
LINE
  5
11B5
100
AcDbEntity
  8
0
100
AcDbLine
 10
-0.0775
 20
-0.134234
 30
0.0
 11
0.0775
 21
-0.134234
 31
0.0
  0
ARC
  5
11B6
100
AcDbEntity
  8
0
100
AcDbCircle
 10
0.0
 20
0.0
 30
0.0
 40
0.092
100
AcDbArc
 50
297.825437
 51
242.174563
  0
ARC
  5
11B7
100
AcDbEntity
  8
0
100
AcDbCircle
 10
0.0
 20
0.0
 30
0.0
 40
0.0625
100
AcDbArc
 50
318.755237
 51
221.244763
  0
ARC
  5
11B8
100
AcDbEntity
  8
0
100
AcDbCircle
 10
0.0
 20
-0.057765
 30
0.0
 40
0.049
100
AcDbArc
 50
171.036583
 51
8.963417
  0
ARC
  5
11B9
100
AcDbEntity
  8
0
100
AcDbCircle
 10
0.0
 20
0.0
 30
0.0
 40
0.04
100
AcDbArc
 50
8.963417
 51
171.036583
  0
LINE
  5
11BA
100
AcDbEntity
  8
0
100
AcDbLine
 10
-0.155
 20
0.0
 30
0.0
 11
-0.0775
 21
-0.134234
 31
0.0
  0
LINE
  5
11BB
100
AcDbEntity
  8
0
100
AcDbLine
 10
-0.048402
 20
-0.050131
 30
0.0
 11
-0.039512
 21
0.006232
 31
0.0
  0
LINE
  5
11BC
100
AcDbEntity
  8
0
100
AcDbLine
 10
0.0775
 20
-0.134234
 30
0.0
 11
0.155
 21
0.0
 31
0.0
  0
LINE
  5
11BD
100
AcDbEntity
  8
0
100
AcDbLine
 10
0.039512
 20
0.006232
 30
0.0
 11
0.048402
 21
-0.050131
 31
0.0
  0
LINE
  5
11BE
100
AcDbEntity
  8
0
100
AcDbLine
 10
0.0775
 20
0.134234
 30
0.0
 11
-0.0775
 21
0.134234
 31
0.0
  0
ENDBLK
  5
11BF
100
AcDbEntity
  8
0
100
AcDbBlockEnd
  0
BLOCK
  5
1BEE
100
AcDbEntity
  8
0
100
AcDbBlockBegin
  2
CE-MARK
 70
     0
 10
0.0
 20
0.0
 30
0.0
  3
CE-MARK
  1

  0
LWPOLYLINE
  5
1BE2
100
AcDbEntity
  8
0
100
AcDbPolyline
 90
        2
 70
     0
 43
0.04
 10
-0.036733
 20
0.083781
 42
1.0
 10
-0.036733
 20
-0.086219
 42
1.0
  0
LWPOLYLINE
  5
1BE6
100
AcDbEntity
  8
0
100
AcDbPolyline
 90
        2
 70
     0
 43
0.04
 10
0.029728
 20
-0.001189
 10
0.119728
 20
-0.001189
  0
LWPOLYLINE
  5
1BEA
100
AcDbEntity
  8
0
100
AcDbPolyline
 90
        2
 70
     0
 43
0.04
 10
0.133267
 20
0.083781
 42
1.0
 10
0.133267
 20
-0.086219
 42
1.0
  0
ENDBLK
  5
1BEF
100
AcDbEntity
  8
0
100
AcDbBlockEnd
  0
BLOCK
  5
1FF3
100
AcDbEntity
  8
0
100
AcDbBlockBegin
  2
*X8
 70
     1
 10
0.0
 20
0.0
 30
0.0
  3
*X8
  1

  0
LINE
  5
1FF5
100
AcDbEntity
  8
0
 62
     0
100
AcDbLine
 10
8.994075
 20
12.466615
 30
0.0
 11
8.94787
 21
12.512821
 31
0.0
  0
LINE
  5
1FF6
100
AcDbEntity
  8
0
 62
     0
100
AcDbLine
 10
8.94787
 20
12.512821
 30
0.0
 11
8.931575
 21
12.529115
 31
0.0
  0
LINE
  5
1FF7
100
AcDbEntity
  8
0
 62
     0
100
AcDbLine
 10
8.994075
 20
12.43126
 30
0.0
 11
8.931575
 21
12.49376
 31
0.0
  0
LINE
  5
1FF8
100
AcDbEntity
  8
0
 62
     0
100
AcDbLine
 10
8.994075
 20
12.395905
 30
0.0
 11
8.931575
 21
12.458405
 31
0.0
  0
LINE
  5
1FF9
100
AcDbEntity
  8
0
 62
     0
100
AcDbLine
 10
8.994075
 20
12.360549
 30
0.0
 11
8.931575
 21
12.423049
 31
0.0
  0
LINE
  5
1FFA
100
AcDbEntity
  8
0
 62
     0
100
AcDbLine
 10
8.994075
 20
12.325194
 30
0.0
 11
8.931575
 21
12.387694
 31
0.0
  0
LINE
  5
1FFB
100
AcDbEntity
  8
0
 62
     0
100
AcDbLine
 10
8.994075
 20
12.289839
 30
0.0
 11
8.931575
 21
12.352339
 31
0.0
  0
LINE
  5
1FFC
100
AcDbEntity
  8
0
 62
     0
100
AcDbLine
 10
8.994075
 20
12.254483
 30
0.0
 11
8.931575
 21
12.316983
 31
0.0
  0
LINE
  5
1FFD
100
AcDbEntity
  8
0
 62
     0
100
AcDbLine
 10
8.991883
 20
12.221321
 30
0.0
 11
8.931575
 21
12.281628
 31
0.0
  0
LINE
  5
1FFE
100
AcDbEntity
  8
0
 62
     0
100
AcDbLine
 10
8.956527
 20
12.221321
 30
0.0
 11
8.931575
 21
12.246273
 31
0.0
  0
LINE
  5
1FFF
100
AcDbEntity
  8
0
 62
     0
100
AcDbLine
 10
8.994075
 20
12.042351
 30
0.0
 11
8.990106
 21
12.046321
 31
0.0
  0
LINE
  5
2000
100
AcDbEntity
  8
0
 62
     0
100
AcDbLine
 10
8.994075
 20
12.006996
 30
0.0
 11
8.954751
 21
12.046321
 31
0.0
  0
LINE
  5
2001
100
AcDbEntity
  8
0
 62
     0
100
AcDbLine
 10
8.994075
 20
11.971641
 30
0.0
 11
8.931575
 21
12.034141
 31
0.0
  0
LINE
  5
2002
100
AcDbEntity
  8
0
 62
     0
100
AcDbLine
 10
8.994075
 20
11.936285
 30
0.0
 11
8.931575
 21
11.998785
 31
0.0
  0
LINE
  5
2003
100
AcDbEntity
  8
0
 62
     0
100
AcDbLine
 10
8.994075
 20
11.90093
 30
0.0
 11
8.931575
 21
11.96343
 31
0.0
  0
LINE
  5
2004
100
AcDbEntity
  8
0
 62
     0
100
AcDbLine
 10
8.994075
 20
11.865575
 30
0.0
 11
8.931575
 21
11.928075
 31
0.0
  0
LINE
  5
2005
100
AcDbEntity
  8
0
 62
     0
100
AcDbLine
 10
8.994075
 20
11.830219
 30
0.0
 11
8.931575
 21
11.892719
 31
0.0
  0
LINE
  5
2006
100
AcDbEntity
  8
0
 62
     0
100
AcDbLine
 10
8.994075
 20
11.794864
 30
0.0
 11
8.931575
 21
11.857364
 31
0.0
  0
LINE
  5
2007
100
AcDbEntity
  8
0
 62
     0
100
AcDbLine
 10
8.990763
 20
11.762821
 30
0.0
 11
8.931575
 21
11.822009
 31
0.0
  0
LINE
  5
2008
100
AcDbEntity
  8
0
 62
     0
100
AcDbLine
 10
8.955408
 20
11.762821
 30
0.0
 11
8.931575
 21
11.786653
 31
0.0
  0
LINE
  5
2009
100
AcDbEntity
  8
0
 62
     0
100
AcDbLine
 10
8.994075
 20
12.501971
 30
0.0
 11
8.983226
 21
12.512821
 31
0.0
  0
LINE
  5
200A
100
AcDbEntity
  8
0
 62
     0
100
AcDbLine
 10
8.983226
 20
12.512821
 30
0.0
 11
8.931575
 21
12.564471
 31
0.0
  0
LINE
  5
200B
100
AcDbEntity
  8
0
 62
     0
100
AcDbLine
 10
8.994075
 20
12.537326
 30
0.0
 11
8.942581
 21
12.588821
 31
0.0
  0
LINE
  5
200C
100
AcDbEntity
  8
0
 62
     0
100
AcDbLine
 10
8.994075
 20
12.572681
 30
0.0
 11
8.963575
 21
12.603181
 31
0.0
  0
LINE
  5
200D
100
AcDbEntity
  8
0
 62
     0
100
AcDbLine
 10
8.994075
 20
12.608037
 30
0.0
 11
8.981792
 21
12.620321
 31
0.0
  0
LINE
  5
200E
100
AcDbEntity
  8
0
 62
     0
100
AcDbLine
 10
8.994075
 20
12.996945
 30
0.0
 11
8.931575
 21
13.059445
 31
0.0
  0
LINE
  5
200F
100
AcDbEntity
  8
0
 62
     0
100
AcDbLine
 10
8.994075
 20
13.032301
 30
0.0
 11
8.931575
 21
13.094801
 31
0.0
  0
LINE
  5
2010
100
AcDbEntity
  8
0
 62
     0
100
AcDbLine
 10
8.994075
 20
13.067656
 30
0.0
 11
8.931575
 21
13.130156
 31
0.0
  0
LINE
  5
2011
100
AcDbEntity
  8
0
 62
     0
100
AcDbLine
 10
8.994075
 20
13.103012
 30
0.0
 11
8.931575
 21
13.165512
 31
0.0
  0
LINE
  5
2012
100
AcDbEntity
  8
0
 62
     0
100
AcDbLine
 10
8.994075
 20
13.138367
 30
0.0
 11
8.931575
 21
13.200867
 31
0.0
  0
LINE
  5
2013
100
AcDbEntity
  8
0
 62
     0
100
AcDbLine
 10
8.994075
 20
13.173722
 30
0.0
 11
8.931575
 21
13.236222
 31
0.0
  0
LINE
  5
2014
100
AcDbEntity
  8
0
 62
     0
100
AcDbLine
 10
8.994075
 20
13.209078
 30
0.0
 11
8.940332
 21
13.262821
 31
0.0
  0
LINE
  5
2015
100
AcDbEntity
  8
0
 62
     0
100
AcDbLine
 10
8.994075
 20
13.244433
 30
0.0
 11
8.975688
 21
13.262821
 31
0.0
  0
ENDBLK
  5
2016
100
AcDbEntity
  8
0
100
AcDbBlockEnd
  0
BLOCK
  5
21DC
100
AcDbEntity
  8
0
100
AcDbBlockBegin
  2
*X9
 70
     1
 10
0.0
 20
0.0
 30
0.0
  3
*X9
  1

  0
LINE
  5
21DE
100
AcDbEntity
  8
0
 62
     0
100
AcDbLine
 10
9.146667
 20
13.141821
 30
0.0
 11
9.181575
 21
13.176729
 31
0.0
  0
LINE
  5
21DF
100
AcDbEntity
  8
0
 62
     0
100
AcDbLine
 10
9.111312
 20
13.141821
 30
0.0
 11
9.181575
 21
13.212084
 31
0.0
  0
LINE
  5
21E0
100
AcDbEntity
  8
0
 62
     0
100
AcDbLine
 10
9.075957
 20
13.141821
 30
0.0
 11
9.161957
 21
13.227821
 31
0.0
  0
LINE
  5
21E1
100
AcDbEntity
  8
0
 62
     0
100
AcDbLine
 10
9.040601
 20
13.141821
 30
0.0
 11
9.126601
 21
13.227821
 31
0.0
  0
LINE
  5
21E2
100
AcDbEntity
  8
0
 62
     0
100
AcDbLine
 10
9.005246
 20
13.141821
 30
0.0
 11
9.091246
 21
13.227821
 31
0.0
  0
LINE
  5
21E3
100
AcDbEntity
  8
0
 62
     0
100
AcDbLine
 10
8.994075
 20
13.166005
 30
0.0
 11
9.055891
 21
13.227821
 31
0.0
  0
LINE
  5
21E4
100
AcDbEntity
  8
0
 62
     0
100
AcDbLine
 10
8.994075
 20
13.201361
 30
0.0
 11
9.020535
 21
13.227821
 31
0.0
  0
LINE
  5
21E5
100
AcDbEntity
  8
0
 62
     0
100
AcDbLine
 10
8.994075
 20
11.893213
 30
0.0
 11
8.999683
 21
11.898821
 31
0.0
  0
LINE
  5
21E6
100
AcDbEntity
  8
0
 62
     0
100
AcDbLine
 10
8.994075
 20
11.857858
 30
0.0
 11
9.035038
 21
11.898821
 31
0.0
  0
LINE
  5
21E7
100
AcDbEntity
  8
0
 62
     0
100
AcDbLine
 10
8.994075
 20
11.822503
 30
0.0
 11
9.070394
 21
11.898821
 31
0.0
  0
LINE
  5
21E8
100
AcDbEntity
  8
0
 62
     0
100
AcDbLine
 10
8.994075
 20
11.787147
 30
0.0
 11
9.105749
 21
11.898821
 31
0.0
  0
LINE
  5
21E9
100
AcDbEntity
  8
0
 62
     0
100
AcDbLine
 10
9.005104
 20
11.762821
 30
0.0
 11
9.141104
 21
11.898821
 31
0.0
  0
LINE
  5
21EA
100
AcDbEntity
  8
0
 62
     0
100
AcDbLine
 10
9.04046
 20
11.762821
 30
0.0
 11
9.162075
 21
11.884437
 31
0.0
  0
LINE
  5
21EB
100
AcDbEntity
  8
0
 62
     0
100
AcDbLine
 10
9.075815
 20
11.762821
 30
0.0
 11
9.162075
 21
11.849081
 31
0.0
  0
LINE
  5
21EC
100
AcDbEntity
  8
0
 62
     0
100
AcDbLine
 10
9.11117
 20
11.762821
 30
0.0
 11
9.162075
 21
11.813726
 31
0.0
  0
LINE
  5
21ED
100
AcDbEntity
  8
0
 62
     0
100
AcDbLine
 10
9.146526
 20
11.762821
 30
0.0
 11
9.162075
 21
11.778371
 31
0.0
  0
ENDBLK
  5
21EE
100
AcDbEntity
  8
0
100
AcDbBlockEnd
  0
BLOCK
  5
2206
100
AcDbEntity
  8
0
100
AcDbBlockBegin
  2
*X10
 70
     1
 10
0.0
 20
0.0
 30
0.0
  3
*X10
  1

  0
LINE
  5
2208
100
AcDbEntity
  8
0
 62
     0
100
AcDbLine
 10
9.485221
 20
13.126821
 30
0.0
 11
9.535304
 21
13.176904
 31
0.0
  0
LINE
  5
2209
100
AcDbEntity
  8
0
 62
     0
100
AcDbLine
 10
9.449865
 20
13.126821
 30
0.0
 11
9.525662
 21
13.202617
 31
0.0
  0
LINE
  5
220A
100
AcDbEntity
  8
0
 62
     0
100
AcDbLine
 10
9.41451
 20
13.126821
 30
0.0
 11
9.516019
 21
13.22833
 31
0.0
  0
LINE
  5
220B
100
AcDbEntity
  8
0
 62
     0
100
AcDbLine
 10
9.379155
 20
13.126821
 30
0.0
 11
9.506377
 21
13.254043
 31
0.0
  0
LINE
  5
220C
100
AcDbEntity
  8
0
 62
     0
100
AcDbLine
 10
9.343799
 20
13.126821
 30
0.0
 11
9.479799
 21
13.262821
 31
0.0
  0
LINE
  5
220D
100
AcDbEntity
  8
0
 62
     0
100
AcDbLine
 10
9.308444
 20
13.126821
 30
0.0
 11
9.444444
 21
13.262821
 31
0.0
  0
LINE
  5
220E
100
AcDbEntity
  8
0
 62
     0
100
AcDbLine
 10
9.273089
 20
13.126821
 30
0.0
 11
9.409089
 21
13.262821
 31
0.0
  0
LINE
  5
220F
100
AcDbEntity
  8
0
 62
     0
100
AcDbLine
 10
9.237733
 20
13.126821
 30
0.0
 11
9.373733
 21
13.262821
 31
0.0
  0
LINE
  5
2210
100
AcDbEntity
  8
0
 62
     0
100
AcDbLine
 10
9.202378
 20
13.126821
 30
0.0
 11
9.338378
 21
13.262821
 31
0.0
  0
LINE
  5
2211
100
AcDbEntity
  8
0
 62
     0
100
AcDbLine
 10
9.167023
 20
13.126821
 30
0.0
 11
9.303023
 21
13.262821
 31
0.0
  0
LINE
  5
2212
100
AcDbEntity
  8
0
 62
     0
100
AcDbLine
 10
9.131667
 20
13.126821
 30
0.0
 11
9.146667
 21
13.141821
 31
0.0
  0
LINE
  5
2213
100
AcDbEntity
  8
0
 62
     0
100
AcDbLine
 10
9.181575
 20
13.176729
 30
0.0
 11
9.267667
 21
13.262821
 31
0.0
  0
LINE
  5
2214
100
AcDbEntity
  8
0
 62
     0
100
AcDbLine
 10
9.096312
 20
13.126821
 30
0.0
 11
9.111312
 21
13.141821
 31
0.0
  0
LINE
  5
2215
100
AcDbEntity
  8
0
 62
     0
100
AcDbLine
 10
9.181575
 20
13.212084
 30
0.0
 11
9.232312
 21
13.262821
 31
0.0
  0
LINE
  5
2216
100
AcDbEntity
  8
0
 62
     0
100
AcDbLine
 10
9.060957
 20
13.126821
 30
0.0
 11
9.075957
 21
13.141821
 31
0.0
  0
LINE
  5
2217
100
AcDbEntity
  8
0
 62
     0
100
AcDbLine
 10
9.161957
 20
13.227821
 30
0.0
 11
9.196957
 21
13.262821
 31
0.0
  0
LINE
  5
2218
100
AcDbEntity
  8
0
 62
     0
100
AcDbLine
 10
9.025601
 20
13.126821
 30
0.0
 11
9.040601
 21
13.141821
 31
0.0
  0
LINE
  5
2219
100
AcDbEntity
  8
0
 62
     0
100
AcDbLine
 10
9.126601
 20
13.227821
 30
0.0
 11
9.161601
 21
13.262821
 31
0.0
  0
LINE
  5
221A
100
AcDbEntity
  8
0
 62
     0
100
AcDbLine
 10
8.994075
 20
13.13065
 30
0.0
 11
9.005246
 21
13.141821
 31
0.0
  0
LINE
  5
221B
100
AcDbEntity
  8
0
 62
     0
100
AcDbLine
 10
9.091246
 20
13.227821
 30
0.0
 11
9.126246
 21
13.262821
 31
0.0
  0
LINE
  5
221C
100
AcDbEntity
  8
0
 62
     0
100
AcDbLine
 10
9.055891
 20
13.227821
 30
0.0
 11
9.090891
 21
13.262821
 31
0.0
  0
LINE
  5
221D
100
AcDbEntity
  8
0
 62
     0
100
AcDbLine
 10
9.020535
 20
13.227821
 30
0.0
 11
9.055535
 21
13.262821
 31
0.0
  0
LINE
  5
221E
100
AcDbEntity
  8
0
 62
     0
100
AcDbLine
 10
8.994075
 20
13.236716
 30
0.0
 11
9.02018
 21
13.262821
 31
0.0
  0
LINE
  5
221F
100
AcDbEntity
  8
0
 62
     0
100
AcDbLine
 10
9.504648
 20
13.110892
 30
0.0
 11
9.544946
 21
13.151191
 31
0.0
  0
LINE
  5
2220
100
AcDbEntity
  8
0
 62
     0
100
AcDbLine
 10
9.504648
 20
13.075537
 30
0.0
 11
9.554589
 21
13.125478
 31
0.0
  0
LINE
  5
2221
100
AcDbEntity
  8
0
 62
     0
100
AcDbLine
 10
9.504648
 20
13.040182
 30
0.0
 11
9.554648
 21
13.090182
 31
0.0
  0
LINE
  5
2222
100
AcDbEntity
  8
0
 62
     0
100
AcDbLine
 10
9.504648
 20
13.004826
 30
0.0
 11
9.554648
 21
13.054826
 31
0.0
  0
LINE
  5
2223
100
AcDbEntity
  8
0
 62
     0
100
AcDbLine
 10
9.504648
 20
12.969471
 30
0.0
 11
9.554684
 21
13.019508
 31
0.0
  0
LINE
  5
2224
100
AcDbEntity
  8
0
 62
     0
100
AcDbLine
 10
9.528353
 20
12.957821
 30
0.0
 11
9.572103
 21
13.001571
 31
0.0
  0
LINE
  5
2225
100
AcDbEntity
  8
0
 62
     0
100
AcDbLine
 10
9.563708
 20
12.957821
 30
0.0
 11
9.610458
 21
13.004571
 31
0.0
  0
LINE
  5
2226
100
AcDbEntity
  8
0
 62
     0
100
AcDbLine
 10
9.570648
 20
12.929405
 30
0.0
 11
9.645813
 21
13.004571
 31
0.0
  0
LINE
  5
2227
100
AcDbEntity
  8
0
 62
     0
100
AcDbLine
 10
9.570648
 20
12.89405
 30
0.0
 11
9.654075
 21
12.977477
 31
0.0
  0
LINE
  5
2228
100
AcDbEntity
  8
0
 62
     0
100
AcDbLine
 10
9.570648
 20
12.858694
 30
0.0
 11
9.654075
 21
12.942122
 31
0.0
  0
LINE
  5
2229
100
AcDbEntity
  8
0
 62
     0
100
AcDbLine
 10
9.570648
 20
12.823339
 30
0.0
 11
9.654075
 21
12.906767
 31
0.0
  0
LINE
  5
222A
100
AcDbEntity
  8
0
 62
     0
100
AcDbLine
 10
9.570648
 20
12.787984
 30
0.0
 11
9.654075
 21
12.871411
 31
0.0
  0
LINE
  5
222B
100
AcDbEntity
  8
0
 62
     0
100
AcDbLine
 10
9.570648
 20
12.752628
 30
0.0
 11
9.654075
 21
12.836056
 31
0.0
  0
LINE
  5
222C
100
AcDbEntity
  8
0
 62
     0
100
AcDbLine
 10
9.570648
 20
12.717273
 30
0.0
 11
9.654075
 21
12.800701
 31
0.0
  0
LINE
  5
222D
100
AcDbEntity
  8
0
 62
     0
100
AcDbLine
 10
9.570648
 20
12.681918
 30
0.0
 11
9.654075
 21
12.765345
 31
0.0
  0
LINE
  5
222E
100
AcDbEntity
  8
0
 62
     0
100
AcDbLine
 10
9.605906
 20
12.681821
 30
0.0
 11
9.654075
 21
12.72999
 31
0.0
  0
LINE
  5
222F
100
AcDbEntity
  8
0
 62
     0
100
AcDbLine
 10
9.641261
 20
12.681821
 30
0.0
 11
9.654075
 21
12.694635
 31
0.0
  0
ENDBLK
  5
2230
100
AcDbEntity
  8
0
100
AcDbBlockEnd
  0
BLOCK
  5
2368
100
AcDbEntity
  8
0
100
AcDbBlockBegin
  2
*X11
 70
     1
 10
0.0
 20
0.0
 30
0.0
  3
*X11
  1

  0
LINE
  5
236A
100
AcDbEntity
  8
0
 62
     0
100
AcDbLine
 10
9.326075
 20
11.87166
 30
0.0
 11
9.353236
 21
11.898821
 31
0.0
  0
LINE
  5
236B
100
AcDbEntity
  8
0
 62
     0
100
AcDbLine
 10
9.570648
 20
12.116232
 30
0.0
 11
9.654075
 21
12.19966
 31
0.0
  0
LINE
  5
236C
100
AcDbEntity
  8
0
 62
     0
100
AcDbLine
 10
9.504648
 20
12.050232
 30
0.0
 11
9.522236
 21
12.067821
 31
0.0
  0
LINE
  5
236D
100
AcDbEntity
  8
0
 62
     0
100
AcDbLine
 10
9.570648
 20
12.151588
 30
0.0
 11
9.654075
 21
12.235015
 31
0.0
  0
LINE
  5
236E
100
AcDbEntity
  8
0
 62
     0
100
AcDbLine
 10
9.570648
 20
12.186943
 30
0.0
 11
9.654075
 21
12.270371
 31
0.0
  0
LINE
  5
236F
100
AcDbEntity
  8
0
 62
     0
100
AcDbLine
 10
9.570648
 20
12.222298
 30
0.0
 11
9.654075
 21
12.305726
 31
0.0
  0
LINE
  5
2370
100
AcDbEntity
  8
0
 62
     0
100
AcDbLine
 10
9.570648
 20
12.257654
 30
0.0
 11
9.650445
 21
12.337451
 31
0.0
  0
LINE
  5
2371
100
AcDbEntity
  8
0
 62
     0
100
AcDbLine
 10
9.570648
 20
12.293009
 30
0.0
 11
9.62146
 21
12.343821
 31
0.0
  0
LINE
  5
2372
100
AcDbEntity
  8
0
 62
     0
100
AcDbLine
 10
9.570648
 20
12.328364
 30
0.0
 11
9.586104
 21
12.343821
 31
0.0
  0
LINE
  5
2373
100
AcDbEntity
  8
0
 62
     0
100
AcDbLine
 10
9.326075
 20
11.836304
 30
0.0
 11
9.388592
 21
11.898821
 31
0.0
  0
LINE
  5
2374
100
AcDbEntity
  8
0
 62
     0
100
AcDbLine
 10
9.570648
 20
12.080877
 30
0.0
 11
9.654075
 21
12.164304
 31
0.0
  0
LINE
  5
2375
100
AcDbEntity
  8
0
 62
     0
100
AcDbLine
 10
9.504648
 20
12.014877
 30
0.0
 11
9.557592
 21
12.067821
 31
0.0
  0
LINE
  5
2376
100
AcDbEntity
  8
0
 62
     0
100
AcDbLine
 10
9.326075
 20
11.800949
 30
0.0
 11
9.423947
 21
11.898821
 31
0.0
  0
LINE
  5
2377
100
AcDbEntity
  8
0
 62
     0
100
AcDbLine
 10
9.504648
 20
11.979522
 30
0.0
 11
9.654075
 21
12.128949
 31
0.0
  0
LINE
  5
2378
100
AcDbEntity
  8
0
 62
     0
100
AcDbLine
 10
9.326075
 20
11.765594
 30
0.0
 11
9.459302
 21
11.898821
 31
0.0
  0
LINE
  5
2379
100
AcDbEntity
  8
0
 62
     0
100
AcDbLine
 10
9.574364
 20
12.013883
 30
0.0
 11
9.654075
 21
12.093594
 31
0.0
  0
LINE
  5
237A
100
AcDbEntity
  8
0
 62
     0
100
AcDbLine
 10
9.504648
 20
11.944166
 30
0.0
 11
9.554648
 21
11.994166
 31
0.0
  0
LINE
  5
237B
100
AcDbEntity
  8
0
 62
     0
100
AcDbLine
 10
9.358658
 20
11.762821
 30
0.0
 11
9.494658
 21
11.898821
 31
0.0
  0
LINE
  5
237C
100
AcDbEntity
  8
0
 62
     0
100
AcDbLine
 10
9.606908
 20
12.011071
 30
0.0
 11
9.654075
 21
12.058238
 31
0.0
  0
LINE
  5
237D
100
AcDbEntity
  8
0
 62
     0
100
AcDbLine
 10
9.504648
 20
11.908811
 30
0.0
 11
9.554648
 21
11.958811
 31
0.0
  0
LINE
  5
237E
100
AcDbEntity
  8
0
 62
     0
100
AcDbLine
 10
9.394013
 20
11.762821
 30
0.0
 11
9.554648
 21
11.923456
 31
0.0
  0
LINE
  5
237F
100
AcDbEntity
  8
0
 62
     0
100
AcDbLine
 10
9.642263
 20
12.011071
 30
0.0
 11
9.654075
 21
12.022883
 31
0.0
  0
LINE
  5
2380
100
AcDbEntity
  8
0
 62
     0
100
AcDbLine
 10
9.429368
 20
11.762821
 30
0.0
 11
9.553316
 21
11.886768
 31
0.0
  0
LINE
  5
2381
100
AcDbEntity
  8
0
 62
     0
100
AcDbLine
 10
9.464724
 20
11.762821
 30
0.0
 11
9.532102
 21
11.830199
 31
0.0
  0
LINE
  5
2382
100
AcDbEntity
  8
0
 62
     0
100
AcDbLine
 10
9.500079
 20
11.762821
 30
0.0
 11
9.510889
 21
11.773631
 31
0.0
  0
ENDBLK
  5
2383
100
AcDbEntity
  8
0
100
AcDbBlockEnd
  0
BLOCK
  5
24BA
100
AcDbEntity
  8
0
100
AcDbBlockBegin
  2
*X12
 70
     1
 10
0.0
 20
0.0
 30
0.0
  3
*X12
  1

  0
LINE
  5
24BC
100
AcDbEntity
  8
0
 62
     0
100
AcDbLine
 10
10.483986
 20
13.029571
 30
0.0
 11
10.506613
 21
13.052198
 31
0.0
  0
LINE
  5
24BD
100
AcDbEntity
  8
0
 62
     0
100
AcDbLine
 10
10.448631
 20
13.029571
 30
0.0
 11
10.506613
 21
13.087553
 31
0.0
  0
LINE
  5
24BE
100
AcDbEntity
  8
0
 62
     0
100
AcDbLine
 10
10.413276
 20
13.029571
 30
0.0
 11
10.491526
 21
13.107821
 31
0.0
  0
LINE
  5
24BF
100
AcDbEntity
  8
0
 62
     0
100
AcDbLine
 10
10.37792
 20
13.029571
 30
0.0
 11
10.45617
 21
13.107821
 31
0.0
  0
LINE
  5
24C0
100
AcDbEntity
  8
0
 62
     0
100
AcDbLine
 10
10.342565
 20
13.029571
 30
0.0
 11
10.420815
 21
13.107821
 31
0.0
  0
LINE
  5
24C1
100
AcDbEntity
  8
0
 62
     0
100
AcDbLine
 10
10.30721
 20
13.029571
 30
0.0
 11
10.38546
 21
13.107821
 31
0.0
  0
LINE
  5
24C2
100
AcDbEntity
  8
0
 62
     0
100
AcDbLine
 10
10.271854
 20
13.029571
 30
0.0
 11
10.350104
 21
13.107821
 31
0.0
  0
LINE
  5
24C3
100
AcDbEntity
  8
0
 62
     0
100
AcDbLine
 10
10.236499
 20
13.029571
 30
0.0
 11
10.314749
 21
13.107821
 31
0.0
  0
LINE
  5
24C4
100
AcDbEntity
  8
0
 62
     0
100
AcDbLine
 10
10.226613
 20
13.05504
 30
0.0
 11
10.279394
 21
13.107821
 31
0.0
  0
LINE
  5
24C5
100
AcDbEntity
  8
0
 62
     0
100
AcDbLine
 10
10.226613
 20
13.090396
 30
0.0
 11
10.244038
 21
13.107821
 31
0.0
  0
LINE
  5
24C6
100
AcDbEntity
  8
0
 62
     0
100
AcDbLine
 10
10.226613
 20
11.99438
 30
0.0
 11
10.228304
 21
11.996071
 31
0.0
  0
LINE
  5
24C7
100
AcDbEntity
  8
0
 62
     0
100
AcDbLine
 10
10.226613
 20
11.959025
 30
0.0
 11
10.263659
 21
11.996071
 31
0.0
  0
LINE
  5
24C8
100
AcDbEntity
  8
0
 62
     0
100
AcDbLine
 10
10.226613
 20
11.92367
 30
0.0
 11
10.299014
 21
11.996071
 31
0.0
  0
LINE
  5
24C9
100
AcDbEntity
  8
0
 62
     0
100
AcDbLine
 10
10.25612
 20
11.917821
 30
0.0
 11
10.33437
 21
11.996071
 31
0.0
  0
LINE
  5
24CA
100
AcDbEntity
  8
0
 62
     0
100
AcDbLine
 10
10.291475
 20
11.917821
 30
0.0
 11
10.369725
 21
11.996071
 31
0.0
  0
LINE
  5
24CB
100
AcDbEntity
  8
0
 62
     0
100
AcDbLine
 10
10.32683
 20
11.917821
 30
0.0
 11
10.40508
 21
11.996071
 31
0.0
  0
LINE
  5
24CC
100
AcDbEntity
  8
0
 62
     0
100
AcDbLine
 10
10.362186
 20
11.917821
 30
0.0
 11
10.440436
 21
11.996071
 31
0.0
  0
LINE
  5
24CD
100
AcDbEntity
  8
0
 62
     0
100
AcDbLine
 10
10.397541
 20
11.917821
 30
0.0
 11
10.475791
 21
11.996071
 31
0.0
  0
LINE
  5
24CE
100
AcDbEntity
  8
0
 62
     0
100
AcDbLine
 10
10.432896
 20
11.917821
 30
0.0
 11
10.506613
 21
11.991538
 31
0.0
  0
LINE
  5
24CF
100
AcDbEntity
  8
0
 62
     0
100
AcDbLine
 10
10.468252
 20
11.917821
 30
0.0
 11
10.506613
 21
11.956182
 31
0.0
  0
LINE
  5
24D0
100
AcDbEntity
  8
0
 62
     0
100
AcDbLine
 10
10.503607
 20
11.917821
 30
0.0
 11
10.506613
 21
11.920827
 31
0.0
  0
ENDBLK
  5
24D1
100
AcDbEntity
  8
0
100
AcDbBlockEnd
  0
BLOCK
  5
260E
100
AcDbEntity
  8
0
100
AcDbBlockBegin
  2
COPYRIGHT99
 70
     0
 10
0.0
 20
0.0
 30
0.0
  3
COPYRIGHT99
  1

  0
MTEXT
  5
260D
100
AcDbEntity
  8
BORDER
100
AcDbMText
 10
0.025873
 20
0.323045
 30
0.0
 40
0.25
 41
9.341
 71
     1
 72
     5
  1
\fVerdana|b0|i0|c0|p34;COPYRIGHT \fSymbol|b0|i0|c2|p18;\H0.3;Ó\fVerdana|b0|i0|c0|p34;\H0.25; 1999 by THORLABS INC.
  0
ENDBLK
  5
260F
100
AcDbEntity
  8
0
100
AcDbBlockEnd
  0
ENDSEC
  0
SECTION
  2
ENTITIES
  0
INSERT
  5
69F
100
AcDbEntity
  8
BODY
100
AcDbBlockReference
  2
BNC-SIDE
 10
8.931575
 20
12.807821
 30
0.0
 50
180.0
1001
ACAD
1000
ASC_BOUNDS
1002
{
1070
    19
1002
}
  0
INSERT
  5
6C6
100
AcDbEntity
  8
BODY
100
AcDbBlockReference
  2
TOGGLE-SIDE
 10
8.994075
 20
12.133821
 30
0.0
1001
ACAD
1000
ASC_BOUNDS
1002
{
1070
    19
1002
}
  0
LWPOLYLINE
  5
6C9
100
AcDbEntity
  8
BODY
100
AcDbPolyline
 90
        4
 70
     1
 43
0.0
 10
9.407067
 20
12.337821
 10
9.407067
 20
12.687821
 10
9.532067
 20
12.687821
 10
9.532067
 20
12.337821
  0
LINE
  5
72A
100
AcDbEntity
  8
BODY
100
AcDbLine
 10
9.532067
 20
12.333821
 30
0.0
 11
9.532067
 21
12.691821
 31
0.0
  0
LINE
  5
72B
100
AcDbEntity
  8
BODY
100
AcDbLine
 10
9.552067
 20
12.691821
 30
0.0
 11
9.552067
 21
12.333821
 31
0.0
  0
LINE
  5
72C
100
AcDbEntity
  8
BODY
100
AcDbLine
 10
9.693067
 20
12.353321
 30
0.0
 11
9.552067
 21
12.353321
 31
0.0
  0
LINE
  5
72D
100
AcDbEntity
  8
BODY
100
AcDbLine
 10
9.552067
 20
12.672321
 30
0.0
 11
9.693067
 21
12.672321
 31
0.0
  0
LINE
  5
72E
100
AcDbEntity
  8
BODY
100
AcDbLine
 10
9.532067
 20
12.691821
 30
0.0
 11
9.552067
 21
12.691821
 31
0.0
  0
LINE
  5
72F
100
AcDbEntity
  8
BODY
100
AcDbLine
 10
9.552067
 20
12.353321
 30
0.0
 11
9.552067
 21
12.672321
 31
0.0
  0
LINE
  5
730
100
AcDbEntity
  8
BODY
100
AcDbLine
 10
9.621996
 20
12.583821
 30
0.0
 11
9.621996
 21
12.441821
 31
0.0
  0
LINE
  5
731
100
AcDbEntity
  8
BODY
100
AcDbLine
 10
9.642067
 20
12.441821
 30
0.0
 11
9.642067
 21
12.583821
 31
0.0
  0
LINE
  5
732
100
AcDbEntity
  8
BODY
100
AcDbLine
 10
9.693067
 20
12.672321
 30
0.0
 11
9.693067
 21
12.353321
 31
0.0
  0
LINE
  5
733
100
AcDbEntity
  8
BODY
100
AcDbLine
 10
9.642067
 20
12.583821
 30
0.0
 11
9.621996
 21
12.583821
 31
0.0
  0
LINE
  5
734
100
AcDbEntity
  8
BODY
100
AcDbLine
 10
9.642067
 20
12.441821
 30
0.0
 11
9.621996
 21
12.441821
 31
0.0
  0
LINE
  5
736
100
AcDbEntity
  8
BODY
100
AcDbLine
 10
9.312496
 20
12.403821
 30
0.0
 11
9.312496
 21
12.421821
 31
0.0
  0
LWPOLYLINE
  5
737
100
AcDbEntity
  8
BODY
100
AcDbPolyline
 90
        4
 70
     0
 43
0.0
 10
9.312496
 20
12.421821
 10
9.532067
 20
12.421821
 10
9.532067
 20
12.403821
 10
9.312496
 20
12.403821
  0
LWPOLYLINE
  5
73D
100
AcDbEntity
  8
BODY
100
AcDbPolyline
 90
        4
 70
     0
 43
0.0
 10
9.312496
 20
12.621821
 10
9.532067
 20
12.621821
 10
9.532067
 20
12.603821
 10
9.312496
 20
12.603821
  0
LINE
  5
743
100
AcDbEntity
  8
BODY
100
AcDbLine
 10
9.312496
 20
12.603821
 30
0.0
 11
9.312496
 21
12.621821
 31
0.0
  0
LINE
  5
747
100
AcDbEntity
  8
0
100
AcDbLine
 10
9.554648
 20
13.125321
 30
0.0
 11
9.554648
 21
13.019571
 31
0.0
1001
ACAD
1000
ASC_BOUNDS
1002
{
1070
    19
1005
2207
1005
21DD
1002
}
  0
LINE
  5
748
100
AcDbEntity
  8
0
100
AcDbLine
 10
9.504648
 20
13.126821
 30
0.0
 11
9.504648
 21
12.957821
 31
0.0
1001
ACAD
1000
ASC_BOUNDS
1002
{
1070
    19
1005
2207
1005
21DD
1002
}
  0
LINE
  5
750
100
AcDbEntity
  8
BODY
100
AcDbLine
 10
8.931575
 20
11.762821
 30
0.0
 11
8.931575
 21
13.262821
 31
0.0
1001
ACAD
1000
ASC_BOUNDS
1002
{
1070
    19
1002
}
  0
LINE
  5
751
100
AcDbEntity
  8
BODY
100
AcDbLine
 10
8.994075
 20
11.762821
 30
0.0
 11
8.994075
 21
13.262821
 31
0.0
1001
ACAD
1000
ASC_BOUNDS
1002
{
1070
    19
1002
}
  0
LWPOLYLINE
  5
754
100
AcDbEntity
  8
BODY
100
AcDbPolyline
 90
        4
 70
     1
 43
0.0
 10
8.888575
 20
11.975321
 10
8.888575
 20
12.292321
 10
8.931575
 20
12.292321
 10
8.931575
 20
11.975321
1001
ACAD
1000
ASC_BOUNDS
1002
{
1070
    19
1002
}
  0
LINE
  5
75E
100
AcDbEntity
  8
0
100
AcDbLine
 10
9.554648
 20
13.125321
 30
0.0
 11
9.503085
 21
13.262821
 31
0.0
1001
ACAD
1000
ASC_BOUNDS
1002
{
1070
    19
1005
2207
1005
21DD
1002
}
  0
CIRCLE
  5
76C
100
AcDbEntity
  8
BODY
100
AcDbCircle
 10
14.327226
 20
12.507821
 30
0.0
 40
0.1595
  0
CIRCLE
  5
773
100
AcDbEntity
  8
BODY
100
AcDbCircle
 10
14.327226
 20
12.507821
 30
0.0
 40
0.127651
  0
LWPOLYLINE
  5
774
100
AcDbEntity
  8
BODY
100
AcDbPolyline
 90
        4
 70
     1
 43
0.0
 10
14.256226
 20
12.436821
 10
14.256226
 20
12.578821
 10
14.398226
 20
12.578821
 10
14.398226
 20
12.436821
  0
LWPOLYLINE
  5
907
100
AcDbEntity
  8
BODY
100
AcDbPolyline
 90
        4
 70
     1
 43
0.0
 10
8.994075
 20
12.522821
 10
8.994075
 20
13.092821
 10
9.094075
 20
13.092821
 10
9.094075
 20
12.522821
  0
LINE
  5
11DA
100
AcDbEntity
  8
0
100
AcDbLine
 10
9.181575
 20
13.217821
 30
0.0
 11
8.994075
 21
13.217821
 31
0.0
  0
LINE
  5
11DB
100
AcDbEntity
  8
0
100
AcDbLine
 10
9.181575
 20
13.151821
 30
0.0
 11
8.994075
 21
13.151821
 31
0.0
  0
LINE
  5
11DC
100
AcDbEntity
  8
0
  6
HIDDEN
100
AcDbLine
 10
9.181575
 20
13.227821
 30
0.0
 11
8.994075
 21
13.227821
 31
0.0
1001
ACAD
1000
ASC_BOUNDS
1002
{
1070
    19
1005
2207
1005
21DD
1002
}
  0
LINE
  5
11DD
100
AcDbEntity
  8
0
  6
HIDDEN
100
AcDbLine
 10
9.181575
 20
13.141821
 30
0.0
 11
8.994075
 21
13.141821
 31
0.0
1001
ACAD
1000
ASC_BOUNDS
1002
{
1070
    19
1005
2207
1005
21DD
1002
}
  0
LINE
  5
125A
100
AcDbEntity
  8
0
100
AcDbLine
 39
0.18
 10
9.647004
 20
13.016642
 30
0.0
 11
9.644075
 21
13.019571
 31
0.0
  0
LINE
  5
125B
100
AcDbEntity
  8
0
100
AcDbLine
 39
0.18
 10
9.554648
 20
13.019571
 30
0.0
 11
9.56504
 21
13.001571
 31
0.0
1001
ACAD
1000
ASC_BOUNDS
1002
{
1070
    19
1005
2207
1005
21DD
1002
}
  0
LINE
  5
125C
100
AcDbEntity
  8
0
100
AcDbLine
 39
0.18
 10
9.584648
 20
13.019571
 30
0.0
 11
9.574256
 21
13.001571
 31
0.0
1001
ACAD
1000
ASC_BOUNDS
1002
{
1070
    19
1005
2207
1005
21DD
1002
}
  0
LINE
  5
125D
100
AcDbEntity
  8
0
100
AcDbLine
 39
0.18
 10
9.56504
 20
13.001571
 30
0.0
 11
9.574256
 21
13.001571
 31
0.0
1001
ACAD
1000
ASC_BOUNDS
1002
{
1070
    19
1005
2207
1005
21DD
1002
}
  0
LINE
  5
1260
100
AcDbEntity
  8
0
  6
CONTINUOUS
100
AcDbLine
 39
0.18
 10
9.644075
 20
13.019571
 30
0.0
 11
9.584648
 21
13.019571
 31
0.0
  0
LINE
  5
1263
100
AcDbEntity
  8
0
  6
HIDDEN
100
AcDbLine
 39
0.18
 10
9.575988
 20
13.004571
 30
0.0
 11
9.652004
 21
13.004571
 31
0.0
1001
ACAD
1000
ASC_BOUNDS
1002
{
1070
    19
1005
2207
1005
21DD
1002
}
  0
LINE
  5
1370
100
AcDbEntity
  8
D1
  6
CENTER
100
AcDbLine
 10
9.244075
 20
12.091935
 30
0.0
 11
9.244075
 21
11.56894
 31
0.0
1001
ACAD
1000
ASC_BOUNDS
1002
{
1070
    19
1002
}
  0
LINE
  5
1371
100
AcDbEntity
  8
0
100
AcDbLine
 10
9.309075
 20
11.898821
 30
0.0
 11
9.309075
 21
11.762821
 31
0.0
1001
ACAD
1000
ASC_BOUNDS
1002
{
1070
    19
1002
}
  0
LINE
  5
1372
100
AcDbEntity
  8
0
100
AcDbLine
 10
9.179075
 20
11.898821
 30
0.0
 11
9.179075
 21
11.762821
 31
0.0
1001
ACAD
1000
ASC_BOUNDS
1002
{
1070
    19
1002
}
  0
LINE
  5
1373
100
AcDbEntity
  8
0
  6
HIDDEN
100
AcDbLine
 10
9.326075
 20
11.898821
 30
0.0
 11
9.326075
 21
11.762821
 31
0.0
1001
ACAD
1000
ASC_BOUNDS
1002
{
1070
    19
1005
21DD
1005
2369
1002
}
  0
LINE
  5
1374
100
AcDbEntity
  8
0
  6
HIDDEN
100
AcDbLine
 10
9.162075
 20
11.898821
 30
0.0
 11
9.162075
 21
11.762821
 31
0.0
1001
ACAD
1000
ASC_BOUNDS
1002
{
1070
    19
1005
21DD
1002
}
  0
CIRCLE
  5
14A2
100
AcDbEntity
  8
0
100
AcDbCircle
 10
6.920274
 20
13.184821
 30
0.0
 40
0.03335
  0
CIRCLE
  5
14A3
100
AcDbEntity
  8
0
100
AcDbCircle
 10
6.920274
 20
13.184821
 30
0.0
 40
0.043
  0
ARC
  5
14A8
100
AcDbEntity
  8
0
100
AcDbCircle
 10
6.920274
 20
12.507821
 30
0.0
 40
0.75
100
AcDbArc
 50
279.366789
 51
260.633211
  0
CIRCLE
  5
14CD
100
AcDbEntity
  8
0
100
AcDbCircle
 10
14.327226
 20
12.507821
 30
0.0
 40
0.19375
  0
CIRCLE
  5
14D2
100
AcDbEntity
  8
0
  6
HIDDEN
100
AcDbCircle
 10
14.327226
 20
12.507821
 30
0.0
 40
0.49675
  0
CIRCLE
  5
14D3
100
AcDbEntity
  8
0
100
AcDbCircle
 10
14.327226
 20
12.507821
 30
0.0
 40
0.51175
  0
CIRCLE
  5
14D4
100
AcDbEntity
  8
0
100
AcDbCircle
 10
14.327226
 20
12.507821
 30
0.0
 40
0.6125
  0
LINE
  5
14D7
100
AcDbEntity
  8
0
100
AcDbLine
 10
14.449291
 20
11.767821
 30
0.0
 11
14.20516
 21
11.767821
 31
0.0
  0
LINE
  5
14DA
100
AcDbEntity
  8
0
100
AcDbLine
 10
9.644075
 20
12.681821
 30
0.0
 11
9.654075
 21
12.691821
 31
0.0
1001
ACAD
1000
ASC_BOUNDS
1002
{
1070
    19
1005
2207
1005
21DD
1002
}
  0
LINE
  5
14DC
100
AcDbEntity
  8
0
100
AcDbLine
 10
9.647004
 20
13.016642
 30
0.0
 11
9.654075
 21
12.999571
 31
0.0
1001
ACAD
1000
ASC_BOUNDS
1002
{
1070
    19
1005
2207
1005
21DD
1002
}
  0
LINE
  5
14DF
100
AcDbEntity
  8
0
100
AcDbLine
 10
7.04234
 20
11.767821
 30
0.0
 11
6.798209
 21
11.767821
 31
0.0
  0
CIRCLE
  5
14E0
100
AcDbEntity
  8
0
100
AcDbCircle
 10
6.333975
 20
12.169321
 30
0.0
 40
0.043
  0
CIRCLE
  5
14E1
100
AcDbEntity
  8
0
100
AcDbCircle
 10
6.333975
 20
12.169321
 30
0.0
 40
0.03335
  0
CIRCLE
  5
14E2
100
AcDbEntity
  8
0
100
AcDbCircle
 10
7.506573
 20
12.169321
 30
0.0
 40
0.043
  0
CIRCLE
  5
14E3
100
AcDbEntity
  8
0
100
AcDbCircle
 10
7.506573
 20
12.169321
 30
0.0
 40
0.03335
  0
LINE
  5
1581
100
AcDbEntity
  8
0
  6
HIDDEN
100
AcDbLine
 10
6.838274
 20
11.899321
 30
0.0
 11
6.838274
 21
11.767821
 31
0.0
1001
ACAD
1000
ASC_BOUNDS
1002
{
1070
    19
1002
}
  0
LINE
  5
1582
100
AcDbEntity
  8
0
  6
HIDDEN
100
AcDbLine
 10
7.002274
 20
11.899321
 30
0.0
 11
7.002274
 21
11.767821
 31
0.0
1001
ACAD
1000
ASC_BOUNDS
1002
{
1070
    19
1002
}
  0
LINE
  5
1583
100
AcDbEntity
  8
0
100
AcDbLine
 10
6.855274
 20
11.897271
 30
0.0
 11
6.855274
 21
11.767821
 31
0.0
1001
ACAD
1000
ASC_BOUNDS
1002
{
1070
    19
1002
}
  0
LINE
  5
1584
100
AcDbEntity
  8
0
100
AcDbLine
 10
6.985274
 20
11.897271
 30
0.0
 11
6.985274
 21
11.767821
 31
0.0
1001
ACAD
1000
ASC_BOUNDS
1002
{
1070
    19
1002
}
  0
LINE
  5
15A5
100
AcDbEntity
  8
0
  6
HIDDEN
100
AcDbLine
 39
0.18
 10
9.575988
 20
12.011071
 30
0.0
 11
9.652004
 21
12.011071
 31
0.0
1001
ACAD
1000
ASC_BOUNDS
1002
{
1070
    19
1005
21DD
1005
2369
1002
}
  0
LINE
  5
15A6
100
AcDbEntity
  8
0
100
AcDbLine
 39
0.18
 10
9.584648
 20
11.996071
 30
0.0
 11
9.574256
 21
12.014071
 31
0.0
1001
ACAD
1000
ASC_BOUNDS
1002
{
1070
    19
1002
}
  0
LINE
  5
15A7
100
AcDbEntity
  8
0
100
AcDbLine
 39
0.18
 10
9.56504
 20
12.014071
 30
0.0
 11
9.574256
 21
12.014071
 31
0.0
1001
ACAD
1000
ASC_BOUNDS
1002
{
1070
    19
1005
21DD
1005
2369
1002
}
  0
LINE
  5
15A8
100
AcDbEntity
  8
0
100
AcDbLine
 39
0.18
 10
9.554648
 20
11.996071
 30
0.0
 11
9.56504
 21
12.014071
 31
0.0
1001
ACAD
1000
ASC_BOUNDS
1002
{
1070
    19
1005
21DD
1005
2369
1002
}
  0
LINE
  5
15A9
100
AcDbEntity
  8
0
100
AcDbLine
 39
0.18
 10
9.647004
 20
11.999
 30
0.0
 11
9.644075
 21
11.996071
 31
0.0
  0
LINE
  5
15AA
100
AcDbEntity
  8
0
  6
CONTINUOUS
100
AcDbLine
 39
0.18
 10
9.644075
 20
11.996071
 30
0.0
 11
9.584648
 21
11.996071
 31
0.0
  0
LINE
  5
15AC
100
AcDbEntity
  8
0
100
AcDbLine
 10
9.554648
 20
11.890321
 30
0.0
 11
9.506835
 21
11.762821
 31
0.0
1001
ACAD
1000
ASC_BOUNDS
1002
{
1070
    19
1005
21DD
1005
2369
1002
}
  0
LINE
  5
15AF
100
AcDbEntity
  8
0
100
AcDbLine
 10
9.644075
 20
12.343821
 30
0.0
 11
9.654075
 21
12.333821
 31
0.0
1001
ACAD
1000
ASC_BOUNDS
1002
{
1070
    19
1005
21DD
1005
2369
1002
}
  0
LINE
  5
15B2
100
AcDbEntity
  8
0
100
AcDbLine
 10
9.504648
 20
11.898821
 30
0.0
 11
9.504648
 21
12.067821
 31
0.0
1001
ACAD
1000
ASC_BOUNDS
1002
{
1070
    19
1005
21DD
1005
2369
1002
}
  0
LINE
  5
15B4
100
AcDbEntity
  8
0
100
AcDbLine
 10
9.554648
 20
11.890321
 30
0.0
 11
9.554648
 21
11.996071
 31
0.0
1001
ACAD
1000
ASC_BOUNDS
1002
{
1070
    19
1005
21DD
1005
2369
1002
}
  0
LINE
  5
15B5
100
AcDbEntity
  8
0
100
AcDbLine
 10
9.647004
 20
11.999
 30
0.0
 11
9.654075
 21
12.016071
 31
0.0
1001
ACAD
1000
ASC_BOUNDS
1002
{
1070
    19
1005
21DD
1005
2369
1002
}
  0
LINE
  5
15BA
100
AcDbEntity
  8
0
100
AcDbLine
 10
9.570648
 20
12.957821
 30
0.0
 11
9.570648
 21
12.672321
 31
0.0
1001
ACAD
1000
ASC_BOUNDS
1002
{
1070
    19
1005
0
1005
2207
1005
21DD
1005
21DD
1002
}
  0
ARC
  5
15C8
100
AcDbEntity
  8
0
100
AcDbCircle
 10
14.327226
 20
12.507821
 30
0.0
 40
0.75
100
AcDbArc
 50
279.366789
 51
260.633211
  0
LINE
  5
15C9
100
AcDbEntity
  8
0
100
AcDbLine
 10
9.506835
 20
11.762821
 30
0.0
 11
8.994075
 21
11.762821
 31
0.0
1001
ACAD
1000
ASC_BOUNDS
1002
{
1070
    19
1005
0
1005
21DD
1005
21DD
1005
2369
1002
}
  0
LINE
  5
1731
100
AcDbEntity
  8
D1
100
AcDbLine
 10
8.994075
 20
11.742821
 30
0.0
 11
8.994075
 21
11.400131
 31
0.0
  0
LINE
  5
1732
100
AcDbEntity
  8
D1
100
AcDbLine
 10
9.244075
 20
11.54394
 30
0.0
 11
9.244075
 21
11.400131
 31
0.0
  0
LINE
  5
1733
100
AcDbEntity
  8
D1
100
AcDbLine
 10
8.894075
 20
11.424131
 30
0.0
 11
8.794075
 21
11.424131
 31
0.0
  0
LINE
  5
1734
100
AcDbEntity
  8
D1
100
AcDbLine
 10
9.344075
 20
11.424131
 30
0.0
 11
9.444075
 21
11.424131
 31
0.0
  0
SOLID
  5
1735
100
AcDbEntity
  8
D1
100
AcDbTrace
 10
8.894075
 20
11.440798
 30
0.0
 11
8.894075
 21
11.407465
 31
0.0
 12
8.994075
 22
11.424131
 32
0.0
 13
8.994075
 23
11.424131
 33
0.0
  0
SOLID
  5
1736
100
AcDbEntity
  8
D1
100
AcDbTrace
 10
9.344075
 20
11.440798
 30
0.0
 11
9.344075
 21
11.407465
 31
0.0
 12
9.244075
 22
11.424131
 32
0.0
 13
9.244075
 23
11.424131
 33
0.0
  0
MTEXT
  5
1737
100
AcDbEntity
  8
D1
100
AcDbMText
 10
8.564609
 20
11.424131
 30
0.0
 40
0.08
 41
0.0
 71
     5
 72
     5
  1
\A1;0.250
  0
SOLID
  5
17FB
100
AcDbEntity
  8
D1
100
AcDbTrace
 10
14.607889
 20
13.332756
 30
0.0
 11
14.578996
 21
13.349378
 31
0.0
 12
14.543577
 22
13.254387
 32
0.0
 13
14.543577
 23
13.254387
 33
0.0
  0
LINE
  5
17FC
100
AcDbEntity
  8
D1
100
AcDbLine
 10
14.593443
 20
13.341067
 30
0.0
 11
14.720176
 21
13.561361
 31
0.0
  0
LINE
  5
17FD
100
AcDbEntity
  8
D1
100
AcDbLine
 10
14.720176
 20
13.561361
 30
0.0
 11
14.820176
 21
13.561361
 31
0.0
  0
MTEXT
  5
17FE
100
AcDbEntity
  8
D1
100
AcDbMText
 10
14.856176
 20
13.561361
 30
0.0
 40
0.08
 41
0.0
 71
     4
 72
     5
  1
{%%c1.5}{" DIA.}
  0
LINE
  5
17FF
100
AcDbEntity
  8
D1
100
AcDbLine
 10
14.291226
 20
12.507821
 30
0.0
 11
14.363226
 21
12.507821
 31
0.0
  0
LINE
  5
1800
100
AcDbEntity
  8
D1
100
AcDbLine
 10
14.327226
 20
12.471821
 30
0.0
 11
14.327226
 21
12.543821
 31
0.0
  0
LINE
  5
1801
100
AcDbEntity
  8
D1
100
AcDbLine
 10
14.388226
 20
12.507821
 30
0.0
 11
15.350755
 21
12.507821
 31
0.0
  0
LINE
  5
1802
100
AcDbEntity
  8
D1
100
AcDbLine
 10
14.474291
 20
11.767821
 30
0.0
 11
15.350755
 21
11.767821
 31
0.0
  0
LINE
  5
1803
100
AcDbEntity
  8
D1
100
AcDbLine
 10
15.326755
 20
12.407821
 30
0.0
 11
15.326755
 21
12.213821
 31
0.0
  0
LINE
  5
1804
100
AcDbEntity
  8
D1
100
AcDbLine
 10
15.326755
 20
11.867821
 30
0.0
 11
15.326755
 21
12.061821
 31
0.0
  0
SOLID
  5
1805
100
AcDbEntity
  8
D1
100
AcDbTrace
 10
15.310088
 20
12.407821
 30
0.0
 11
15.343422
 21
12.407821
 31
0.0
 12
15.326755
 22
12.507821
 32
0.0
 13
15.326755
 23
12.507821
 33
0.0
  0
SOLID
  5
1806
100
AcDbEntity
  8
D1
100
AcDbTrace
 10
15.310088
 20
11.867821
 30
0.0
 11
15.343422
 21
11.867821
 31
0.0
 12
15.326755
 22
11.767821
 32
0.0
 13
15.326755
 23
11.767821
 33
0.0
  0
MTEXT
  5
1807
100
AcDbEntity
  8
D1
100
AcDbMText
 10
15.326755
 20
12.137821
 30
0.0
 40
0.08
 41
0.0
 71
     5
 72
     5
  1
\A1;0.740
  0
MTEXT
  5
181B
100
AcDbEntity
  8
D1
100
AcDbMText
 10
10.050835
 20
11.310056
 30
0.0
 40
0.08
 41
0.0
 71
     4
 72
     5
  1
{1.035-40}\P{THREAD}
  0
SOLID
  5
182E
100
AcDbEntity
  8
D1
100
AcDbTrace
 10
9.329169
 20
11.63342
 30
0.0
 11
9.356369
 21
11.652688
 31
0.0
 12
9.284965
 22
11.724655
 32
0.0
 13
9.284965
 23
11.724655
 33
0.0
  0
LINE
  5
182F
100
AcDbEntity
  8
D1
100
AcDbLine
 10
9.342769
 20
11.643054
 30
0.0
 11
9.790233
 21
11.011708
 31
0.0
  0
LINE
  5
1830
100
AcDbEntity
  8
D1
100
AcDbLine
 10
9.790233
 20
11.011708
 30
0.0
 11
9.890233
 21
11.011708
 31
0.0
  0
LINE
  5
1835
100
AcDbEntity
  8
0
100
AcDbLine
 10
9.654075
 20
12.016071
 30
0.0
 11
9.654075
 21
12.353321
 31
0.0
1001
ACAD
1000
ASC_BOUNDS
1002
{
1070
    19
1005
0
1005
21DD
1005
21DD
1005
2369
1002
}
  0
LINE
  5
183A
100
AcDbEntity
  8
0
100
AcDbLine
 10
9.181575
 20
13.141821
 30
0.0
 11
9.181575
 21
13.227821
 31
0.0
1001
ACAD
1000
ASC_BOUNDS
1002
{
1070
    19
1005
2207
1005
21DD
1002
}
  0
TEXT
  5
1864
100
AcDbEntity
  8
D1
100
AcDbText
 10
9.918231
 20
10.975707
 30
0.0
 40
0.08
  1
#8-32 TAP THRU
100
AcDbText
  0
LWPOLYLINE
  5
187F
100
AcDbEntity
  8
BODY
100
AcDbPolyline
 90
        4
 70
     1
 43
0.0
 10
9.163425
 20
11.767821
 10
9.163425
 20
11.997821
 10
9.324725
 20
11.997821
 10
9.324725
 20
11.767821
  0
LINE
  5
188D
100
AcDbEntity
  8
0
100
AcDbLine
 10
8.994075
 20
13.262821
 30
0.0
 11
9.503085
 21
13.262821
 31
0.0
1001
ACAD
1000
ASC_BOUNDS
1002
{
1070
    19
1005
2207
1005
21DD
1002
}
  0
LINE
  5
1893
100
AcDbEntity
  8
0
100
AcDbLine
 10
8.994075
 20
13.126821
 30
0.0
 11
9.504648
 21
13.126821
 31
0.0
1001
ACAD
1000
ASC_BOUNDS
1002
{
1070
    19
1005
2207
1005
21DD
1002
}
  0
LINE
  5
1894
100
AcDbEntity
  8
0
100
AcDbLine
 10
8.994075
 20
11.898821
 30
0.0
 11
9.504648
 21
11.898821
 31
0.0
1001
ACAD
1000
ASC_BOUNDS
1002
{
1070
    19
1005
0
1005
21DD
1005
21DD
1005
2369
1002
}
  0
LINE
  5
1895
100
AcDbEntity
  8
0
100
AcDbLine
 10
9.504648
 20
12.957821
 30
0.0
 11
9.570648
 21
12.957821
 31
0.0
1001
ACAD
1000
ASC_BOUNDS
1002
{
1070
    19
1005
2207
1005
21DD
1002
}
  0
LINE
  5
1896
100
AcDbEntity
  8
0
100
AcDbLine
 10
9.504648
 20
12.067821
 30
0.0
 11
9.570648
 21
12.067821
 31
0.0
1001
ACAD
1000
ASC_BOUNDS
1002
{
1070
    19
1005
21DD
1005
2369
1002
}
  0
LINE
  5
189B
100
AcDbEntity
  8
0
100
AcDbLine
 10
9.570648
 20
12.681821
 30
0.0
 11
9.644075
 21
12.681821
 31
0.0
1001
ACAD
1000
ASC_BOUNDS
1002
{
1070
    19
1005
2207
1005
21DD
1002
}
  0
LINE
  5
189C
100
AcDbEntity
  8
0
100
AcDbLine
 10
9.570648
 20
12.343821
 30
0.0
 11
9.644075
 21
12.343821
 31
0.0
1001
ACAD
1000
ASC_BOUNDS
1002
{
1070
    19
1005
21DD
1005
2369
1002
}
  0
LINE
  5
18A4
100
AcDbEntity
  8
BODY
100
AcDbLine
 10
9.532067
 20
12.333821
 30
0.0
 11
9.552067
 21
12.333821
 31
0.0
  0
LINE
  5
18A6
100
AcDbEntity
  8
0
100
AcDbLine
 10
8.994075
 20
11.762821
 30
0.0
 11
8.994075
 21
13.262821
 31
0.0
1001
ACAD
1000
ASC_BOUNDS
1002
{
1070
    19
1005
0
1005
2207
1005
21DD
1005
21DD
1002
}
  0
LINE
  5
18A8
100
AcDbEntity
  8
BODY
100
AcDbLine
 10
9.407067
 20
13.092821
 30
0.0
 11
9.344567
 21
13.092821
 31
0.0
  0
LINE
  5
18A9
100
AcDbEntity
  8
BODY
100
AcDbLine
 10
9.407067
 20
11.932821
 30
0.0
 11
9.344567
 21
11.932821
 31
0.0
  0
LINE
  5
18AA
100
AcDbEntity
  8
BODY
100
AcDbLine
 10
9.407067
 20
11.932821
 30
0.0
 11
9.407067
 21
13.092821
 31
0.0
  0
LINE
  5
18AB
100
AcDbEntity
  8
BODY
100
AcDbLine
 10
9.344567
 20
11.932821
 30
0.0
 11
9.344567
 21
13.092821
 31
0.0
  0
LINE
  5
18AC
100
AcDbEntity
  8
BODY
100
AcDbLine
 10
8.994075
 20
13.262821
 30
0.0
 11
8.931575
 21
13.262821
 31
0.0
1001
ACAD
1000
ASC_BOUNDS
1002
{
1070
    19
1002
}
  0
LINE
  5
18AD
100
AcDbEntity
  8
BODY
100
AcDbLine
 10
8.994075
 20
11.762821
 30
0.0
 11
8.931575
 21
11.762821
 31
0.0
1001
ACAD
1000
ASC_BOUNDS
1002
{
1070
    19
1002
}
  0
CIRCLE
  5
1C1C
100
AcDbEntity
  8
0
100
AcDbCircle
 39
0.18
 10
6.920274
 20
12.098049
 30
0.0
 40
0.156
  0
TEXT
  5
1C1D
100
AcDbEntity
  8
SILK-SCREEN
100
AcDbText
 10
6.437921
 20
12.810339
 30
0.0
 40
0.075
  1
PDA55
  7
HL-HD
100
AcDbText
  0
ARC
  5
1C1E
100
AcDbEntity
  8
0
100
AcDbCircle
 10
6.625274
 20
12.507821
 30
0.0
 40
0.21875
100
AcDbArc
 50
122.251453
 51
57.748547
  0
INSERT
  5
1C1F
100
AcDbEntity
  8
BODY
100
AcDbBlockReference
  2
BNC
 10
6.625274
 20
12.507821
 30
0.0
  0
LINE
  5
1C24
100
AcDbEntity
  8
0
100
AcDbLine
 10
6.508541
 20
12.692821
 30
0.0
 11
6.742007
 21
12.692821
 31
0.0
  0
CIRCLE
  5
1C26
100
AcDbEntity
  8
0
100
AcDbCircle
 10
6.970274
 20
12.887821
 30
0.0
 40
0.08
  0
INSERT
  5
1C27
100
AcDbEntity
  8
SILK-SCREEN
100
AcDbBlockReference
  2
LOGO
 10
6.617552
 20
13.012503
 30
0.0
 41
0.3
 42
0.3
 43
0.3
  0
CIRCLE
  5
1C28
100
AcDbEntity
  8
0
100
AcDbCircle
 10
7.506573
 20
12.169321
 30
0.0
 40
0.048
  0
CIRCLE
  5
1C29
100
AcDbEntity
  8
0
100
AcDbCircle
 10
7.299274
 20
12.511821
 30
0.0
 40
0.0955
  0
INSERT
  5
1C2A
100
AcDbEntity
  8
BODY
100
AcDbBlockReference
  2
TOGGLE-TOP
 10
7.299274
 20
12.511821
 30
0.0
  0
TEXT
  5
1C2B
100
AcDbEntity
  8
SILK-SCREEN
100
AcDbText
 10
7.205355
 20
12.229257
 30
0.0
 40
0.075
  1
OFF
  7
HL-HD
100
AcDbText
  0
TEXT
  5
1C2C
100
AcDbEntity
  8
SILK-SCREEN
100
AcDbText
 10
7.215566
 20
12.70963
 30
0.0
 40
0.075
  1
ON
  7
HL-HD
100
AcDbText
  0
INSERT
  5
1C2D
100
AcDbEntity
  8
SILK-SCREEN
100
AcDbBlockReference
  2
CE-MARK
 10
6.542444
 20
12.106421
 30
0.0
 41
0.5
 42
0.5
 43
0.5
  0
CIRCLE
  5
1C2E
100
AcDbEntity
  8
0
100
AcDbCircle
 10
6.333975
 20
12.169321
 30
0.0
 40
0.048
  0
CIRCLE
  5
1C2F
100
AcDbEntity
  8
0
100
AcDbCircle
 10
6.920274
 20
13.184821
 30
0.0
 40
0.048
  0
INSERT
  5
1FF4
100
AcDbEntity
  8
0
100
AcDbBlockReference
  2
*X8
 10
0.0
 20
0.0
 30
0.0
1001
ACAD
1000
HATCH
1002
{
1070
    19
1000
ANSI31
1040
0.2
1040
1.570796
1002
}
  0
LINE
  5
2017
100
AcDbEntity
  8
0
100
AcDbLine
 10
9.654075
 20
12.672321
 30
0.0
 11
9.654075
 21
12.999571
 31
0.0
1001
ACAD
1000
ASC_BOUNDS
1002
{
1070
    19
1005
2207
1002
}
  0
LINE
  5
21CE
100
AcDbEntity
  8
0
100
AcDbLine
 10
9.570648
 20
12.353321
 30
0.0
 11
9.570648
 21
12.067821
 31
0.0
1001
ACAD
1000
ASC_BOUNDS
1002
{
1070
    19
1005
2369
1002
}
  0
INSERT
  5
21DD
100
AcDbEntity
  8
0
100
AcDbBlockReference
  2
*X9
 10
0.0
 20
0.0
 30
0.0
1001
ACAD
1000
HATCH
1002
{
1070
    19
1000
ANSI31
1040
0.2
1040
0.0
1000
ASC_BOUNDS
1070
     3
1070
     1
1070
     4
1005
1894
1005
18A6
1005
15C9
1005
1374
1070
     1
1070
    15
1005
15AF
1005
189C
1005
15BA
1005
1896
1005
15B2
1005
1894
1005
1373
1005
15C9
1005
15AC
1005
15B4
1005
15A8
1005
15A7
1005
15A5
1005
15B5
1005
1835
1070
     1
1070
    19
1005
188D
1005
18A6
1005
11DC
1005
183A
1005
11DD
1005
1893
1005
748
1005
1895
1005
15BA
1005
189B
1005
14DA
1005
1835
1005
14DC
1005
1263
1005
125C
1005
125D
1005
125B
1005
747
1005
75E
1000
ASC_SEEDPOINT
1011
9.164121
1021
13.159275
1031
0.0
1002
}
  0
INSERT
  5
2207
100
AcDbEntity
  8
0
100
AcDbBlockReference
  2
*X10
 10
0.0
 20
0.0
 30
0.0
1001
ACAD
1000
HATCH
1002
{
1070
    19
1000
ANSI31
1040
0.2
1040
0.0
1000
ASC_BOUNDS
1070
     1
1070
     1
1070
    19
1005
14DC
1005
1263
1005
125C
1005
125D
1005
125B
1005
747
1005
75E
1005
188D
1005
18A6
1005
11DC
1005
183A
1005
11DD
1005
1893
1005
748
1005
1895
1005
15BA
1005
189B
1005
14DA
1005
2017
1000
ASC_SEEDPOINT
1011
9.510262
1021
13.151862
1031
0.0
1002
}
  0
INSERT
  5
2369
100
AcDbEntity
  8
0
100
AcDbBlockReference
  2
*X11
 10
0.0
 20
0.0
 30
0.0
1001
ACAD
1000
HATCH
1002
{
1070
    19
1000
ANSI31
1040
0.2
1040
0.0
1000
ASC_BOUNDS
1070
     1
1070
     1
1070
    15
1005
15AF
1005
189C
1005
21CE
1005
1896
1005
15B2
1005
1894
1005
1373
1005
15C9
1005
15AC
1005
15B4
1005
15A8
1005
15A7
1005
15A5
1005
15B5
1005
1835
1000
ASC_SEEDPOINT
1011
9.612585
1021
12.153905
1031
0.0
1002
}
  0
LINE
  5
2393
100
AcDbEntity
  8
0
100
AcDbLine
 10
12.886321
 20
11.890321
 30
0.0
 11
12.838509
 21
11.762821
 31
0.0
1001
ACAD
1000
ASC_BOUNDS
1002
{
1070
    19
1002
}
  0
LINE
  5
2396
100
AcDbEntity
  8
0
100
AcDbLine
 10
12.325749
 20
11.762821
 30
0.0
 11
12.325749
 21
13.262821
 31
0.0
1001
ACAD
1000
ASC_BOUNDS
1002
{
1070
    19
1002
}
  0
LINE
  5
2397
100
AcDbEntity
  8
BODY
100
AcDbLine
 10
12.263249
 20
11.762821
 30
0.0
 11
12.263249
 21
13.262821
 31
0.0
1001
ACAD
1000
ASC_BOUNDS
1002
{
1070
    19
1002
}
  0
LINE
  5
23A2
100
AcDbEntity
  8
BODY
100
AcDbLine
 10
12.325749
 20
11.762821
 30
0.0
 11
12.325749
 21
13.262821
 31
0.0
1001
ACAD
1000
ASC_BOUNDS
1002
{
1070
    19
1002
}
  0
LINE
  5
23A3
100
AcDbEntity
  8
0
100
AcDbLine
 10
12.838509
 20
11.762821
 30
0.0
 11
12.325749
 21
11.762821
 31
0.0
1001
ACAD
1000
ASC_BOUNDS
1002
{
1070
    19
1002
}
  0
LINE
  5
23A4
100
AcDbEntity
  8
BODY
100
AcDbLine
 10
12.325749
 20
11.762821
 30
0.0
 11
12.263249
 21
11.762821
 31
0.0
1001
ACAD
1000
ASC_BOUNDS
1002
{
1070
    19
1002
}
  0
LWPOLYLINE
  5
23B0
100
AcDbEntity
  8
BODY
100
AcDbPolyline
 90
        4
 70
     1
 43
0.0
 10
12.220249
 20
11.975321
 10
12.220249
 20
12.292321
 10
12.263249
 20
12.292321
 10
12.263249
 20
11.975321
1001
ACAD
1000
ASC_BOUNDS
1002
{
1070
    19
1002
}
  0
LINE
  5
23E6
100
AcDbEntity
  8
0
100
AcDbLine
 10
12.325749
 20
13.262821
 30
0.0
 11
12.834759
 21
13.262821
 31
0.0
1001
ACAD
1000
ASC_BOUNDS
1002
{
1070
    19
1002
}
  0
LINE
  5
23EC
100
AcDbEntity
  8
BODY
100
AcDbLine
 10
12.325749
 20
13.262821
 30
0.0
 11
12.263249
 21
13.262821
 31
0.0
1001
ACAD
1000
ASC_BOUNDS
1002
{
1070
    19
1002
}
  0
LINE
  5
23EF
100
AcDbEntity
  8
0
100
AcDbLine
 10
12.886321
 20
13.125321
 30
0.0
 11
12.886321
 21
11.890321
 31
0.0
1001
ACAD
1000
ASC_BOUNDS
1002
{
1070
    19
1002
}
  0
LINE
  5
23F0
100
AcDbEntity
  8
0
100
AcDbLine
 10
12.886321
 20
13.125321
 30
0.0
 11
12.834759
 21
13.262821
 31
0.0
1001
ACAD
1000
ASC_BOUNDS
1002
{
1070
    19
1002
}
  0
CIRCLE
  5
2407
100
AcDbEntity
  8
0
100
AcDbCircle
 10
11.973249
 20
12.807821
 30
0.0
 40
0.04
  0
LINE
  5
2408
100
AcDbEntity
  8
0
100
AcDbLine
 10
12.263249
 20
13.052571
 30
0.0
 11
12.263249
 21
12.563071
 31
0.0
  0
LINE
  5
2409
100
AcDbEntity
  8
0
100
AcDbLine
 10
12.218249
 20
13.052571
 30
0.0
 11
12.218249
 21
12.563071
 31
0.0
  0
LINE
  5
240A
100
AcDbEntity
  8
0
100
AcDbLine
 10
11.798249
 20
12.995571
 30
0.0
 11
11.798249
 21
12.620071
 31
0.0
  0
LINE
  5
240B
100
AcDbEntity
  8
0
100
AcDbLine
 10
11.798249
 20
12.995571
 30
0.0
 11
12.218249
 21
12.995571
 31
0.0
  0
LINE
  5
240C
100
AcDbEntity
  8
0
100
AcDbLine
 10
12.263249
 20
13.052571
 30
0.0
 11
12.218249
 21
13.052571
 31
0.0
  0
LINE
  5
240D
100
AcDbEntity
  8
0
100
AcDbLine
 10
11.798249
 20
12.620071
 30
0.0
 11
12.218249
 21
12.620071
 31
0.0
  0
LINE
  5
240E
100
AcDbEntity
  8
0
100
AcDbLine
 10
12.263249
 20
12.563071
 30
0.0
 11
12.218249
 21
12.563071
 31
0.0
  0
LINE
  5
2412
100
AcDbEntity
  8
DIM1
100
AcDbLine
 10
12.105749
 20
12.185035
 30
0.0
 11
11.782537
 21
12.11338
 31
0.0
  0
LINE
  5
2413
100
AcDbEntity
  8
DIM1
100
AcDbLine
 10
12.105749
 20
12.082607
 30
0.0
 11
11.804181
 21
12.015751
 31
0.0
  0
LINE
  5
2420
100
AcDbEntity
  8
DIM1
100
AcDbLine
 10
12.105749
 20
12.221321
 30
0.0
 11
12.12203
 21
12.046321
 31
0.0
  0
LINE
  5
2421
100
AcDbEntity
  8
DIM1
100
AcDbLine
 10
12.125749
 20
12.221321
 30
0.0
 11
12.14203
 21
12.046321
 31
0.0
  0
LINE
  5
2422
100
AcDbEntity
  8
DIM1
100
AcDbLine
 10
12.185749
 20
12.221321
 30
0.0
 11
12.20203
 21
12.046321
 31
0.0
  0
LINE
  5
2423
100
AcDbEntity
  8
DIM1
100
AcDbLine
 10
12.205749
 20
12.221321
 30
0.0
 11
12.220249
 21
12.065465
 31
0.0
  0
LINE
  5
2429
100
AcDbEntity
  8
DIM1
100
AcDbLine
 10
12.145749
 20
12.221321
 30
0.0
 11
12.16203
 21
12.046321
 31
0.0
  0
LINE
  5
242A
100
AcDbEntity
  8
DIM1
100
AcDbLine
 10
12.165749
 20
12.221321
 30
0.0
 11
12.18203
 21
12.046321
 31
0.0
  0
ARC
  5
2434
100
AcDbEntity
  8
DIM1
100
AcDbCircle
 10
11.794914
 20
12.06491
 30
0.0
 40
0.050025
100
AcDbArc
 50
104.324647
 51
280.675353
  0
LWPOLYLINE
  5
2435
100
AcDbEntity
  8
DIM1
100
AcDbPolyline
 90
        3
 70
     0
 43
0.0
 10
12.105749
 20
12.046321
 10
12.105749
 20
12.221321
 10
12.220249
 20
12.221321
  0
LWPOLYLINE
  5
2446
100
AcDbEntity
  8
DIM1
100
AcDbPolyline
 90
        2
 70
     0
 43
0.0
 10
12.220249
 20
12.046321
 10
12.105749
 20
12.046321
  0
LINE
  5
2455
100
AcDbEntity
  8
0
100
AcDbLine
 10
12.220249
 20
12.203348
 30
0.0
 11
12.263249
 21
12.203348
 31
0.0
  0
LINE
  5
2456
100
AcDbEntity
  8
0
100
AcDbLine
 10
12.220249
 20
12.064293
 30
0.0
 11
12.263249
 21
12.064293
 31
0.0
  0
SOLID
  5
2457
100
AcDbEntity
  8
D1
100
AcDbTrace
 10
9.711031
 20
11.813417
 30
0.0
 11
9.737447
 21
11.833747
 31
0.0
 12
9.663249
 22
11.90283
 32
0.0
 13
9.663249
 23
11.90283
 33
0.0
  0
LINE
  5
2458
100
AcDbEntity
  8
D1
100
AcDbLine
 10
9.724239
 20
11.823582
 30
0.0
 11
9.993496
 21
11.473725
 31
0.0
  0
LWPOLYLINE
  5
2459
100
AcDbEntity
  8
0
100
AcDbPolyline
 90
        4
 70
     1
 43
0.0
 10
10.226613
 20
11.917821
 10
10.226613
 20
13.107821
 10
10.506613
 20
13.107821
 10
10.506613
 20
11.917821
1001
ACAD
1000
ASC_BOUNDS
1002
{
1070
    19
1005
24BB
1005
24BB
1002
}
  0
LINE
  5
2460
100
AcDbEntity
  8
0
  6
HIDDEN
100
AcDbLine
 10
10.226613
 20
11.996071
 30
0.0
 11
10.506613
 21
11.996071
 31
0.0
1001
ACAD
1000
ASC_BOUNDS
1002
{
1070
    19
1005
24BB
1002
}
  0
LINE
  5
2461
100
AcDbEntity
  8
0
  6
HIDDEN
100
AcDbLine
 10
10.226613
 20
12.011071
 30
0.0
 11
10.506613
 21
12.011071
 31
0.0
  0
LINE
  5
2462
100
AcDbEntity
  8
0
  6
HIDDEN
100
AcDbLine
 10
10.226613
 20
13.014571
 30
0.0
 11
10.506613
 21
13.014571
 31
0.0
  0
LINE
  5
2463
100
AcDbEntity
  8
0
  6
HIDDEN
100
AcDbLine
 10
10.226613
 20
13.029571
 30
0.0
 11
10.506613
 21
13.029571
 31
0.0
1001
ACAD
1000
ASC_BOUNDS
1002
{
1070
    19
1005
24BB
1002
}
  0
INSERT
  5
24BB
100
AcDbEntity
  8
0
100
AcDbBlockReference
  2
*X12
 10
0.0
 20
0.0
 30
0.0
1001
ACAD
1000
HATCH
1002
{
1070
    19
1000
ANSI31
1040
0.2
1040
0.0
1000
ASC_BOUNDS
1070
     2
1070
     1
1070
     2
1005
2460
1005
2459
1070
     1
1070
     2
1005
2459
1005
2463
1000
ASC_SEEDPOINT
1011
10.36538
1021
13.058048
1031
0.0
1002
}
  0
LINE
  5
24D2
100
AcDbEntity
  8
0
  6
HIDDEN
100
AcDbLine
 10
9.761147
 20
12.512821
 30
0.0
 11
10.158533
 21
12.512821
 31
0.0
  0
LWPOLYLINE
  5
24D4
100
AcDbEntity
  8
0
100
AcDbPolyline
 90
        4
 70
     1
 43
0.0
 10
12.886321
 20
11.912821
 10
12.886321
 20
13.102821
 10
13.166321
 20
13.102821
 10
13.166321
 20
11.912821
1001
ACAD
1000
ASC_BOUNDS
1002
{
1070
    19
1002
}
  0
POLYLINE
  5
24E2
100
AcDbEntity
  8
0
100
AcDb2dPolyline
 66
     1
 10
0.0
 20
0.0
 30
0.0
 70
     4
 40
0.16
 41
0.16
 75
     6
  0
VERTEX
  5
24E3
100
AcDbEntity
  8
0
100
AcDbVertex
100
AcDb2dVertex
 10
6.920274
 20
12.098049
 30
0.0
 70
    16
  0
VERTEX
  5
24F8
100
AcDbEntity
  8
0
100
AcDbVertex
100
AcDb2dVertex
 10
6.920274
 20
12.098049
 30
0.0
 70
     8
  0
VERTEX
  5
24F9
100
AcDbEntity
  8
0
100
AcDbVertex
100
AcDb2dVertex
 10
6.728084
 20
11.823426
 30
0.0
 70
     8
  0
VERTEX
  5
24FA
100
AcDbEntity
  8
0
100
AcDbVertex
100
AcDb2dVertex
 10
6.562406
 20
11.594111
 30
0.0
 70
     8
  0
VERTEX
  5
24FB
100
AcDbEntity
  8
0
100
AcDbVertex
100
AcDb2dVertex
 10
6.419805
 20
11.404746
 30
0.0
 70
     8
  0
VERTEX
  5
24FC
100
AcDbEntity
  8
0
100
AcDbVertex
100
AcDb2dVertex
 10
6.296847
 20
11.249973
 30
0.0
 70
     8
  0
VERTEX
  5
24FD
100
AcDbEntity
  8
0
100
AcDbVertex
100
AcDb2dVertex
 10
6.190096
 20
11.124435
 30
0.0
 70
     8
  0
VERTEX
  5
24FE
100
AcDbEntity
  8
0
100
AcDbVertex
100
AcDb2dVertex
 10
6.096118
 20
11.022775
 30
0.0
 70
     8
  0
VERTEX
  5
24FF
100
AcDbEntity
  8
0
100
AcDbVertex
100
AcDb2dVertex
 10
6.011479
 20
10.939633
 30
0.0
 70
     8
  0
VERTEX
  5
2500
100
AcDbEntity
  8
0
100
AcDbVertex
100
AcDb2dVertex
 10
5.932742
 20
10.869654
 30
0.0
 70
     8
  0
VERTEX
  5
2501
100
AcDbEntity
  8
0
100
AcDbVertex
100
AcDb2dVertex
 10
5.856984
 20
10.808296
 30
0.0
 70
     8
  0
VERTEX
  5
2502
100
AcDbEntity
  8
0
100
AcDbVertex
100
AcDb2dVertex
 10
5.783314
 20
10.754298
 30
0.0
 70
     8
  0
VERTEX
  5
2503
100
AcDbEntity
  8
0
100
AcDbVertex
100
AcDb2dVertex
 10
5.711351
 20
10.707215
 30
0.0
 70
     8
  0
VERTEX
  5
2504
100
AcDbEntity
  8
0
100
AcDbVertex
100
AcDb2dVertex
 10
5.640717
 20
10.666601
 30
0.0
 70
     8
  0
VERTEX
  5
2505
100
AcDbEntity
  8
0
100
AcDbVertex
100
AcDb2dVertex
 10
5.571029
 20
10.632012
 30
0.0
 70
     8
  0
VERTEX
  5
2506
100
AcDbEntity
  8
0
100
AcDbVertex
100
AcDb2dVertex
 10
5.501909
 20
10.603003
 30
0.0
 70
     8
  0
VERTEX
  5
2507
100
AcDbEntity
  8
0
100
AcDbVertex
100
AcDb2dVertex
 10
5.432975
 20
10.57913
 30
0.0
 70
     8
  0
VERTEX
  5
2508
100
AcDbEntity
  8
0
100
AcDbVertex
100
AcDb2dVertex
 10
5.363847
 20
10.559948
 30
0.0
 70
     8
  0
VERTEX
  5
2509
100
AcDbEntity
  8
0
100
AcDbVertex
100
AcDb2dVertex
 10
5.294264
 20
10.545036
 30
0.0
 70
     8
  0
VERTEX
  5
250A
100
AcDbEntity
  8
0
100
AcDbVertex
100
AcDb2dVertex
 10
5.224437
 20
10.534069
 30
0.0
 70
     8
  0
VERTEX
  5
250B
100
AcDbEntity
  8
0
100
AcDbVertex
100
AcDb2dVertex
 10
5.154696
 20
10.526746
 30
0.0
 70
     8
  0
VERTEX
  5
250C
100
AcDbEntity
  8
0
100
AcDbVertex
100
AcDb2dVertex
 10
5.085371
 20
10.522765
 30
0.0
 70
     8
  0
VERTEX
  5
250D
100
AcDbEntity
  8
0
100
AcDbVertex
100
AcDb2dVertex
 10
5.016792
 20
10.521826
 30
0.0
 70
     8
  0
VERTEX
  5
250E
100
AcDbEntity
  8
0
100
AcDbVertex
100
AcDb2dVertex
 10
4.94929
 20
10.523626
 30
0.0
 70
     8
  0
VERTEX
  5
250F
100
AcDbEntity
  8
0
100
AcDbVertex
100
AcDb2dVertex
 10
4.883194
 20
10.527865
 30
0.0
 70
     8
  0
VERTEX
  5
2510
100
AcDbEntity
  8
0
100
AcDbVertex
100
AcDb2dVertex
 10
4.818835
 20
10.534242
 30
0.0
 70
     8
  0
VERTEX
  5
2511
100
AcDbEntity
  8
0
100
AcDbVertex
100
AcDb2dVertex
 10
4.756507
 20
10.542516
 30
0.0
 70
     8
  0
VERTEX
  5
2512
100
AcDbEntity
  8
0
100
AcDbVertex
100
AcDb2dVertex
 10
4.69636
 20
10.552699
 30
0.0
 70
     8
  0
VERTEX
  5
2513
100
AcDbEntity
  8
0
100
AcDbVertex
100
AcDb2dVertex
 10
4.63851
 20
10.564862
 30
0.0
 70
     8
  0
VERTEX
  5
2514
100
AcDbEntity
  8
0
100
AcDbVertex
100
AcDb2dVertex
 10
4.583071
 20
10.579075
 30
0.0
 70
     8
  0
VERTEX
  5
2515
100
AcDbEntity
  8
0
100
AcDbVertex
100
AcDb2dVertex
 10
4.530159
 20
10.595412
 30
0.0
 70
     8
  0
VERTEX
  5
2516
100
AcDbEntity
  8
0
100
AcDbVertex
100
AcDb2dVertex
 10
4.479886
 20
10.613944
 30
0.0
 70
     8
  0
VERTEX
  5
2517
100
AcDbEntity
  8
0
100
AcDbVertex
100
AcDb2dVertex
 10
4.43237
 20
10.634742
 30
0.0
 70
     8
  0
VERTEX
  5
2518
100
AcDbEntity
  8
0
100
AcDbVertex
100
AcDb2dVertex
 10
4.387724
 20
10.657879
 30
0.0
 70
     8
  0
VERTEX
  5
2519
100
AcDbEntity
  8
0
100
AcDbVertex
100
AcDb2dVertex
 10
4.346033
 20
10.683361
 30
0.0
 70
     8
  0
VERTEX
  5
251A
100
AcDbEntity
  8
0
100
AcDbVertex
100
AcDb2dVertex
 10
4.307255
 20
10.710937
 30
0.0
 70
     8
  0
VERTEX
  5
251B
100
AcDbEntity
  8
0
100
AcDbVertex
100
AcDb2dVertex
 10
4.271318
 20
10.740293
 30
0.0
 70
     8
  0
VERTEX
  5
251C
100
AcDbEntity
  8
0
100
AcDbVertex
100
AcDb2dVertex
 10
4.238152
 20
10.771111
 30
0.0
 70
     8
  0
VERTEX
  5
251D
100
AcDbEntity
  8
0
100
AcDbVertex
100
AcDb2dVertex
 10
4.207684
 20
10.803077
 30
0.0
 70
     8
  0
VERTEX
  5
251E
100
AcDbEntity
  8
0
100
AcDbVertex
100
AcDb2dVertex
 10
4.179843
 20
10.835875
 30
0.0
 70
     8
  0
VERTEX
  5
251F
100
AcDbEntity
  8
0
100
AcDbVertex
100
AcDb2dVertex
 10
4.154556
 20
10.86919
 30
0.0
 70
     8
  0
VERTEX
  5
2520
100
AcDbEntity
  8
0
100
AcDbVertex
100
AcDb2dVertex
 10
4.131752
 20
10.902705
 30
0.0
 70
     8
  0
VERTEX
  5
2521
100
AcDbEntity
  8
0
100
AcDbVertex
100
AcDb2dVertex
 10
4.111376
 20
10.936168
 30
0.0
 70
     8
  0
VERTEX
  5
2522
100
AcDbEntity
  8
0
100
AcDbVertex
100
AcDb2dVertex
 10
4.093441
 20
10.969573
 30
0.0
 70
     8
  0
VERTEX
  5
2523
100
AcDbEntity
  8
0
100
AcDbVertex
100
AcDb2dVertex
 10
4.077973
 20
11.002979
 30
0.0
 70
     8
  0
VERTEX
  5
2524
100
AcDbEntity
  8
0
100
AcDbVertex
100
AcDb2dVertex
 10
4.065004
 20
11.036441
 30
0.0
 70
     8
  0
VERTEX
  5
2525
100
AcDbEntity
  8
0
100
AcDbVertex
100
AcDb2dVertex
 10
4.05456
 20
11.070019
 30
0.0
 70
     8
  0
VERTEX
  5
2526
100
AcDbEntity
  8
0
100
AcDbVertex
100
AcDb2dVertex
 10
4.046671
 20
11.103769
 30
0.0
 70
     8
  0
VERTEX
  5
2527
100
AcDbEntity
  8
0
100
AcDbVertex
100
AcDb2dVertex
 10
4.041365
 20
11.137748
 30
0.0
 70
     8
  0
VERTEX
  5
2528
100
AcDbEntity
  8
0
100
AcDbVertex
100
AcDb2dVertex
 10
4.038671
 20
11.172014
 30
0.0
 70
     8
  0
VERTEX
  5
2529
100
AcDbEntity
  8
0
100
AcDbVertex
100
AcDb2dVertex
 10
4.038607
 20
11.2066
 30
0.0
 70
     8
  0
VERTEX
  5
252A
100
AcDbEntity
  8
0
100
AcDbVertex
100
AcDb2dVertex
 10
4.04114
 20
11.241445
 30
0.0
 70
     8
  0
VERTEX
  5
252B
100
AcDbEntity
  8
0
100
AcDbVertex
100
AcDb2dVertex
 10
4.046228
 20
11.276462
 30
0.0
 70
     8
  0
VERTEX
  5
252C
100
AcDbEntity
  8
0
100
AcDbVertex
100
AcDb2dVertex
 10
4.053828
 20
11.311565
 30
0.0
 70
     8
  0
VERTEX
  5
252D
100
AcDbEntity
  8
0
100
AcDbVertex
100
AcDb2dVertex
 10
4.063896
 20
11.346668
 30
0.0
 70
     8
  0
VERTEX
  5
252E
100
AcDbEntity
  8
0
100
AcDbVertex
100
AcDb2dVertex
 10
4.07639
 20
11.381685
 30
0.0
 70
     8
  0
VERTEX
  5
252F
100
AcDbEntity
  8
0
100
AcDbVertex
100
AcDb2dVertex
 10
4.091266
 20
11.416529
 30
0.0
 70
     8
  0
VERTEX
  5
2530
100
AcDbEntity
  8
0
100
AcDbVertex
100
AcDb2dVertex
 10
4.108482
 20
11.451116
 30
0.0
 70
     8
  0
VERTEX
  5
2531
100
AcDbEntity
  8
0
100
AcDbVertex
100
AcDb2dVertex
 10
4.127992
 20
11.48532
 30
0.0
 70
     8
  0
VERTEX
  5
2532
100
AcDbEntity
  8
0
100
AcDbVertex
100
AcDb2dVertex
 10
4.149741
 20
11.518864
 30
0.0
 70
     8
  0
VERTEX
  5
2533
100
AcDbEntity
  8
0
100
AcDbVertex
100
AcDb2dVertex
 10
4.173671
 20
11.551432
 30
0.0
 70
     8
  0
VERTEX
  5
2534
100
AcDbEntity
  8
0
100
AcDbVertex
100
AcDb2dVertex
 10
4.199726
 20
11.58271
 30
0.0
 70
     8
  0
VERTEX
  5
2535
100
AcDbEntity
  8
0
100
AcDbVertex
100
AcDb2dVertex
 10
4.227847
 20
11.612381
 30
0.0
 70
     8
  0
VERTEX
  5
2536
100
AcDbEntity
  8
0
100
AcDbVertex
100
AcDb2dVertex
 10
4.257978
 20
11.640129
 30
0.0
 70
     8
  0
VERTEX
  5
2537
100
AcDbEntity
  8
0
100
AcDbVertex
100
AcDb2dVertex
 10
4.29006
 20
11.66564
 30
0.0
 70
     8
  0
VERTEX
  5
2538
100
AcDbEntity
  8
0
100
AcDbVertex
100
AcDb2dVertex
 10
4.324037
 20
11.688597
 30
0.0
 70
     8
  0
VERTEX
  5
2539
100
AcDbEntity
  8
0
100
AcDbVertex
100
AcDb2dVertex
 10
4.359864
 20
11.708759
 30
0.0
 70
     8
  0
VERTEX
  5
253A
100
AcDbEntity
  8
0
100
AcDbVertex
100
AcDb2dVertex
 10
4.397541
 20
11.726182
 30
0.0
 70
     8
  0
VERTEX
  5
253B
100
AcDbEntity
  8
0
100
AcDbVertex
100
AcDb2dVertex
 10
4.437085
 20
11.740993
 30
0.0
 70
     8
  0
VERTEX
  5
253C
100
AcDbEntity
  8
0
100
AcDbVertex
100
AcDb2dVertex
 10
4.478509
 20
11.753323
 30
0.0
 70
     8
  0
VERTEX
  5
253D
100
AcDbEntity
  8
0
100
AcDbVertex
100
AcDb2dVertex
 10
4.521827
 20
11.7633
 30
0.0
 70
     8
  0
VERTEX
  5
253E
100
AcDbEntity
  8
0
100
AcDbVertex
100
AcDb2dVertex
 10
4.567054
 20
11.771054
 30
0.0
 70
     8
  0
VERTEX
  5
253F
100
AcDbEntity
  8
0
100
AcDbVertex
100
AcDb2dVertex
 10
4.614204
 20
11.776713
 30
0.0
 70
     8
  0
VERTEX
  5
2540
100
AcDbEntity
  8
0
100
AcDbVertex
100
AcDb2dVertex
 10
4.663292
 20
11.780407
 30
0.0
 70
     8
  0
VERTEX
  5
2541
100
AcDbEntity
  8
0
100
AcDbVertex
100
AcDb2dVertex
 10
4.714237
 20
11.78225
 30
0.0
 70
     8
  0
VERTEX
  5
2542
100
AcDbEntity
  8
0
100
AcDbVertex
100
AcDb2dVertex
 10
4.766573
 20
11.7823
 30
0.0
 70
     8
  0
VERTEX
  5
2543
100
AcDbEntity
  8
0
100
AcDbVertex
100
AcDb2dVertex
 10
4.819742
 20
11.780601
 30
0.0
 70
     8
  0
VERTEX
  5
2544
100
AcDbEntity
  8
0
100
AcDbVertex
100
AcDb2dVertex
 10
4.873183
 20
11.777194
 30
0.0
 70
     8
  0
VERTEX
  5
2545
100
AcDbEntity
  8
0
100
AcDbVertex
100
AcDb2dVertex
 10
4.926338
 20
11.772122
 30
0.0
 70
     8
  0
VERTEX
  5
2546
100
AcDbEntity
  8
0
100
AcDbVertex
100
AcDb2dVertex
 10
4.978645
 20
11.76543
 30
0.0
 70
     8
  0
VERTEX
  5
2547
100
AcDbEntity
  8
0
100
AcDbVertex
100
AcDb2dVertex
 10
5.029547
 20
11.75716
 30
0.0
 70
     8
  0
VERTEX
  5
2548
100
AcDbEntity
  8
0
100
AcDbVertex
100
AcDb2dVertex
 10
5.078481
 20
11.747355
 30
0.0
 70
     8
  0
VERTEX
  5
2549
100
AcDbEntity
  8
0
100
AcDbVertex
100
AcDb2dVertex
 10
5.125041
 20
11.735994
 30
0.0
 70
     8
  0
VERTEX
  5
254A
100
AcDbEntity
  8
0
100
AcDbVertex
100
AcDb2dVertex
 10
5.169419
 20
11.722796
 30
0.0
 70
     8
  0
VERTEX
  5
254B
100
AcDbEntity
  8
0
100
AcDbVertex
100
AcDb2dVertex
 10
5.21196
 20
11.707418
 30
0.0
 70
     8
  0
VERTEX
  5
254C
100
AcDbEntity
  8
0
100
AcDbVertex
100
AcDb2dVertex
 10
5.253008
 20
11.689515
 30
0.0
 70
     8
  0
VERTEX
  5
254D
100
AcDbEntity
  8
0
100
AcDbVertex
100
AcDb2dVertex
 10
5.292908
 20
11.668743
 30
0.0
 70
     8
  0
VERTEX
  5
254E
100
AcDbEntity
  8
0
100
AcDbVertex
100
AcDb2dVertex
 10
5.332004
 20
11.644758
 30
0.0
 70
     8
  0
VERTEX
  5
254F
100
AcDbEntity
  8
0
100
AcDbVertex
100
AcDb2dVertex
 10
5.370641
 20
11.617215
 30
0.0
 70
     8
  0
VERTEX
  5
2550
100
AcDbEntity
  8
0
100
AcDbVertex
100
AcDb2dVertex
 10
5.409163
 20
11.58577
 30
0.0
 70
     8
  0
VERTEX
  5
2551
100
AcDbEntity
  8
0
100
AcDbVertex
100
AcDb2dVertex
 10
5.44781
 20
11.550249
 30
0.0
 70
     8
  0
VERTEX
  5
2552
100
AcDbEntity
  8
0
100
AcDbVertex
100
AcDb2dVertex
 10
5.486399
 20
11.511155
 30
0.0
 70
     8
  0
VERTEX
  5
2553
100
AcDbEntity
  8
0
100
AcDbVertex
100
AcDb2dVertex
 10
5.524643
 20
11.469164
 30
0.0
 70
     8
  0
VERTEX
  5
2554
100
AcDbEntity
  8
0
100
AcDbVertex
100
AcDb2dVertex
 10
5.562256
 20
11.42495
 30
0.0
 70
     8
  0
VERTEX
  5
2555
100
AcDbEntity
  8
0
100
AcDbVertex
100
AcDb2dVertex
 10
5.598951
 20
11.379186
 30
0.0
 70
     8
  0
VERTEX
  5
2556
100
AcDbEntity
  8
0
100
AcDbVertex
100
AcDb2dVertex
 10
5.63444
 20
11.332547
 30
0.0
 70
     8
  0
VERTEX
  5
2557
100
AcDbEntity
  8
0
100
AcDbVertex
100
AcDb2dVertex
 10
5.668436
 20
11.285707
 30
0.0
 70
     8
  0
VERTEX
  5
2558
100
AcDbEntity
  8
0
100
AcDbVertex
100
AcDb2dVertex
 10
5.700653
 20
11.239341
 30
0.0
 70
     8
  0
VERTEX
  5
2559
100
AcDbEntity
  8
0
100
AcDbVertex
100
AcDb2dVertex
 10
5.730889
 20
11.193974
 30
0.0
 70
     8
  0
VERTEX
  5
255A
100
AcDbEntity
  8
0
100
AcDbVertex
100
AcDb2dVertex
 10
5.759288
 20
11.14954
 30
0.0
 70
     8
  0
VERTEX
  5
255B
100
AcDbEntity
  8
0
100
AcDbVertex
100
AcDb2dVertex
 10
5.786079
 20
11.105822
 30
0.0
 70
     8
  0
VERTEX
  5
255C
100
AcDbEntity
  8
0
100
AcDbVertex
100
AcDb2dVertex
 10
5.811492
 20
11.062607
 30
0.0
 70
     8
  0
VERTEX
  5
255D
100
AcDbEntity
  8
0
100
AcDbVertex
100
AcDb2dVertex
 10
5.835758
 20
11.019679
 30
0.0
 70
     8
  0
VERTEX
  5
255E
100
AcDbEntity
  8
0
100
AcDbVertex
100
AcDb2dVertex
 10
5.859104
 20
10.976822
 30
0.0
 70
     8
  0
VERTEX
  5
255F
100
AcDbEntity
  8
0
100
AcDbVertex
100
AcDb2dVertex
 10
5.881762
 20
10.933822
 30
0.0
 70
     8
  0
VERTEX
  5
2560
100
AcDbEntity
  8
0
100
AcDbVertex
100
AcDb2dVertex
 10
5.903961
 20
10.890464
 30
0.0
 70
     8
  0
VERTEX
  5
2561
100
AcDbEntity
  8
0
100
AcDbVertex
100
AcDb2dVertex
 10
5.92593
 20
10.846582
 30
0.0
 70
     8
  0
VERTEX
  5
2562
100
AcDbEntity
  8
0
100
AcDbVertex
100
AcDb2dVertex
 10
5.947899
 20
10.802212
 30
0.0
 70
     8
  0
VERTEX
  5
2563
100
AcDbEntity
  8
0
100
AcDbVertex
100
AcDb2dVertex
 10
5.970097
 20
10.75744
 30
0.0
 70
     8
  0
VERTEX
  5
2564
100
AcDbEntity
  8
0
100
AcDbVertex
100
AcDb2dVertex
 10
5.992755
 20
10.712353
 30
0.0
 70
     8
  0
VERTEX
  5
2565
100
AcDbEntity
  8
0
100
AcDbVertex
100
AcDb2dVertex
 10
6.016102
 20
10.667036
 30
0.0
 70
     8
  0
VERTEX
  5
2566
100
AcDbEntity
  8
0
100
AcDbVertex
100
AcDb2dVertex
 10
6.040367
 20
10.621576
 30
0.0
 70
     8
  0
VERTEX
  5
2567
100
AcDbEntity
  8
0
100
AcDbVertex
100
AcDb2dVertex
 10
6.065781
 20
10.576058
 30
0.0
 70
     8
  0
VERTEX
  5
2568
100
AcDbEntity
  8
0
100
AcDbVertex
100
AcDb2dVertex
 10
6.092572
 20
10.530569
 30
0.0
 70
     8
  0
VERTEX
  5
2569
100
AcDbEntity
  8
0
100
AcDbVertex
100
AcDb2dVertex
 10
6.120932
 20
10.485236
 30
0.0
 70
     8
  0
VERTEX
  5
256A
100
AcDbEntity
  8
0
100
AcDbVertex
100
AcDb2dVertex
 10
6.1509
 20
10.440347
 30
0.0
 70
     8
  0
VERTEX
  5
256B
100
AcDbEntity
  8
0
100
AcDbVertex
100
AcDb2dVertex
 10
6.182476
 20
10.396233
 30
0.0
 70
     8
  0
VERTEX
  5
256C
100
AcDbEntity
  8
0
100
AcDbVertex
100
AcDb2dVertex
 10
6.215659
 20
10.353223
 30
0.0
 70
     8
  0
VERTEX
  5
256D
100
AcDbEntity
  8
0
100
AcDbVertex
100
AcDb2dVertex
 10
6.250449
 20
10.311648
 30
0.0
 70
     8
  0
VERTEX
  5
256E
100
AcDbEntity
  8
0
100
AcDbVertex
100
AcDb2dVertex
 10
6.286847
 20
10.271838
 30
0.0
 70
     8
  0
VERTEX
  5
256F
100
AcDbEntity
  8
0
100
AcDbVertex
100
AcDb2dVertex
 10
6.324853
 20
10.234122
 30
0.0
 70
     8
  0
VERTEX
  5
2570
100
AcDbEntity
  8
0
100
AcDbVertex
100
AcDb2dVertex
 10
6.364466
 20
10.19883
 30
0.0
 70
     8
  0
VERTEX
  5
2571
100
AcDbEntity
  8
0
100
AcDbVertex
100
AcDb2dVertex
 10
6.405721
 20
10.166222
 30
0.0
 70
     8
  0
VERTEX
  5
2572
100
AcDbEntity
  8
0
100
AcDbVertex
100
AcDb2dVertex
 10
6.448791
 20
10.136275
 30
0.0
 70
     8
  0
VERTEX
  5
2573
100
AcDbEntity
  8
0
100
AcDbVertex
100
AcDb2dVertex
 10
6.493886
 20
10.108896
 30
0.0
 70
     8
  0
VERTEX
  5
2574
100
AcDbEntity
  8
0
100
AcDbVertex
100
AcDb2dVertex
 10
6.541212
 20
10.083991
 30
0.0
 70
     8
  0
VERTEX
  5
2575
100
AcDbEntity
  8
0
100
AcDbVertex
100
AcDb2dVertex
 10
6.590978
 20
10.061468
 30
0.0
 70
     8
  0
VERTEX
  5
2576
100
AcDbEntity
  8
0
100
AcDbVertex
100
AcDb2dVertex
 10
6.643392
 20
10.041232
 30
0.0
 70
     8
  0
VERTEX
  5
2577
100
AcDbEntity
  8
0
100
AcDbVertex
100
AcDb2dVertex
 10
6.698662
 20
10.023192
 30
0.0
 70
     8
  0
VERTEX
  5
2578
100
AcDbEntity
  8
0
100
AcDbVertex
100
AcDb2dVertex
 10
6.756997
 20
10.007253
 30
0.0
 70
     8
  0
VERTEX
  5
2579
100
AcDbEntity
  8
0
100
AcDbVertex
100
AcDb2dVertex
 10
6.818465
 20
9.993332
 30
0.0
 70
     8
  0
VERTEX
  5
257A
100
AcDbEntity
  8
0
100
AcDbVertex
100
AcDb2dVertex
 10
6.882581
 20
9.981384
 30
0.0
 70
     8
  0
VERTEX
  5
257B
100
AcDbEntity
  8
0
100
AcDbVertex
100
AcDb2dVertex
 10
6.948721
 20
9.971372
 30
0.0
 70
     8
  0
VERTEX
  5
257C
100
AcDbEntity
  8
0
100
AcDbVertex
100
AcDb2dVertex
 10
7.016261
 20
9.963261
 30
0.0
 70
     8
  0
VERTEX
  5
257D
100
AcDbEntity
  8
0
100
AcDbVertex
100
AcDb2dVertex
 10
7.084575
 20
9.957015
 30
0.0
 70
     8
  0
VERTEX
  5
257E
100
AcDbEntity
  8
0
100
AcDbVertex
100
AcDb2dVertex
 10
7.15304
 20
9.952598
 30
0.0
 70
     8
  0
VERTEX
  5
257F
100
AcDbEntity
  8
0
100
AcDbVertex
100
AcDb2dVertex
 10
7.221031
 20
9.949974
 30
0.0
 70
     8
  0
VERTEX
  5
2580
100
AcDbEntity
  8
0
100
AcDbVertex
100
AcDb2dVertex
 10
7.287925
 20
9.949107
 30
0.0
 70
     8
  0
VERTEX
  5
24E4
100
AcDbEntity
  8
0
100
AcDbVertex
100
AcDb2dVertex
 10
6.369365
 20
11.300548
 30
0.0
 70
    16
  0
VERTEX
  5
24E5
100
AcDbEntity
  8
0
100
AcDbVertex
100
AcDb2dVertex
 10
5.90641
 20
10.786413
 30
0.0
 70
    16
  0
VERTEX
  5
24E6
100
AcDbEntity
  8
0
100
AcDbVertex
100
AcDb2dVertex
 10
5.369971
 20
10.514656
 30
0.0
 70
    16
  0
VERTEX
  5
24E7
100
AcDbEntity
  8
0
100
AcDbVertex
100
AcDb2dVertex
 10
4.79679
 20
10.514656
 30
0.0
 70
    16
  0
VERTEX
  5
24E8
100
AcDbEntity
  8
0
100
AcDbVertex
100
AcDb2dVertex
 10
4.355881
 20
10.632172
 30
0.0
 70
    16
  0
VERTEX
  5
24E9
100
AcDbEntity
  8
0
100
AcDbVertex
100
AcDb2dVertex
 10
4.106033
 20
10.903929
 30
0.0
 70
    16
  0
VERTEX
  5
24EA
100
AcDbEntity
  8
0
100
AcDbVertex
100
AcDb2dVertex
 10
4.010502
 20
11.168341
 30
0.0
 70
    16
  0
VERTEX
  5
24EB
100
AcDbEntity
  8
0
100
AcDbVertex
100
AcDb2dVertex
 10
4.083987
 20
11.454788
 30
0.0
 70
    16
  0
VERTEX
  5
24EC
100
AcDbEntity
  8
0
100
AcDbVertex
100
AcDb2dVertex
 10
4.304442
 20
11.7192
 30
0.0
 70
    16
  0
VERTEX
  5
24ED
100
AcDbEntity
  8
0
100
AcDbVertex
100
AcDb2dVertex
 10
4.642472
 20
11.799993
 30
0.0
 70
    16
  0
VERTEX
  5
24EE
100
AcDbEntity
  8
0
100
AcDbVertex
100
AcDb2dVertex
 10
5.105426
 20
11.763269
 30
0.0
 70
    16
  0
VERTEX
  5
24EF
100
AcDbEntity
  8
0
100
AcDbVertex
100
AcDb2dVertex
 10
5.406714
 20
11.631063
 30
0.0
 70
    16
  0
VERTEX
  5
24F0
100
AcDbEntity
  8
0
100
AcDbVertex
100
AcDb2dVertex
 10
5.722698
 20
11.2271
 30
0.0
 70
    16
  0
VERTEX
  5
24F1
100
AcDbEntity
  8
0
100
AcDbVertex
100
AcDb2dVertex
 10
5.90641
 20
10.896584
 30
0.0
 70
    16
  0
VERTEX
  5
24F2
100
AcDbEntity
  8
0
100
AcDbVertex
100
AcDb2dVertex
 10
6.075425
 20
10.529345
 30
0.0
 70
    16
  0
VERTEX
  5
24F3
100
AcDbEntity
  8
0
100
AcDbVertex
100
AcDb2dVertex
 10
6.347319
 20
10.169451
 30
0.0
 70
    16
  0
VERTEX
  5
24F4
100
AcDbEntity
  8
0
100
AcDbVertex
100
AcDb2dVertex
 10
6.722092
 20
9.985831
 30
0.0
 70
    16
  0
VERTEX
  5
24F5
100
AcDbEntity
  8
0
100
AcDbVertex
100
AcDb2dVertex
 10
7.111561
 20
9.949107
 30
0.0
 70
    16
  0
VERTEX
  5
24F6
100
AcDbEntity
  8
0
100
AcDbVertex
100
AcDb2dVertex
 10
7.287925
 20
9.949107
 30
0.0
 70
    16
  0
SEQEND
  5
24F7
100
AcDbEntity
  8
0
  0
LINE
  5
258B
100
AcDbEntity
  8
0
100
AcDbLine
 10
7.287925
 20
10.099107
 30
0.0
 11
8.107925
 21
10.134107
 31
0.0
  0
LINE
  5
258C
100
AcDbEntity
  8
0
100
AcDbLine
 10
7.287925
 20
9.799107
 30
0.0
 11
8.107925
 21
9.764107
 31
0.0
  0
LINE
  5
258D
100
AcDbEntity
  8
0
100
AcDbLine
 10
7.287925
 20
9.799107
 30
0.0
 11
7.287925
 21
10.099107
 31
0.0
  0
LINE
  5
258F
100
AcDbEntity
  8
0
100
AcDbLine
 10
8.107925
 20
10.134107
 30
0.0
 11
8.107925
 21
9.764107
 31
0.0
  0
LWPOLYLINE
  5
2591
100
AcDbEntity
  8
0
100
AcDbPolyline
 90
        4
 70
     1
 43
0.0
 10
8.277925
 20
9.624107
 10
8.277925
 20
10.274107
 10
9.637925
 20
10.274107
 10
9.637925
 20
9.624107
  0
LINE
  5
2598
100
AcDbEntity
  8
0
100
AcDbLine
 10
8.107925
 20
10.134107
 30
0.0
 11
8.277925
 21
10.274107
 31
0.0
  0
LINE
  5
2599
100
AcDbEntity
  8
0
100
AcDbLine
 10
8.107925
 20
9.764107
 30
0.0
 11
8.277925
 21
9.624107
 31
0.0
  0
CIRCLE
  5
259B
100
AcDbEntity
  8
0
100
AcDbCircle
 10
11.08564
 20
9.949107
 30
0.0
 40
0.325
  0
CIRCLE
  5
259C
100
AcDbEntity
  8
0
100
AcDbCircle
 10
11.08564
 20
9.949107
 30
0.0
 40
0.295
  0
CIRCLE
  5
259D
100
AcDbEntity
  8
0
100
AcDbCircle
 10
11.08564
 20
9.949107
 30
0.0
 40
0.24
  0
CIRCLE
  5
25A6
100
AcDbEntity
  8
0
100
AcDbCircle
 10
10.95564
 20
9.949107
 30
0.0
 40
0.0325
  0
CIRCLE
  5
25A8
100
AcDbEntity
  8
0
100
AcDbCircle
 10
10.993716
 20
10.041031
 30
0.0
 40
0.0325
  0
CIRCLE
  5
25A9
100
AcDbEntity
  8
0
100
AcDbCircle
 10
11.08564
 20
10.079107
 30
0.0
 40
0.0325
  0
CIRCLE
  5
25AA
100
AcDbEntity
  8
0
100
AcDbCircle
 10
11.177564
 20
10.041031
 30
0.0
 40
0.0325
  0
CIRCLE
  5
25AB
100
AcDbEntity
  8
0
100
AcDbCircle
 10
11.21564
 20
9.949107
 30
0.0
 40
0.0325
  0
LINE
  5
25AD
100
AcDbEntity
  8
0
100
AcDbLine
 10
11.03564
 20
9.789107
 30
0.0
 11
11.03564
 21
9.714373
 31
0.0
  0
LINE
  5
25AE
100
AcDbEntity
  8
0
100
AcDbLine
 10
11.13564
 20
9.789107
 30
0.0
 11
11.13564
 21
9.714373
 31
0.0
  0
LINE
  5
25B0
100
AcDbEntity
  8
0
100
AcDbLine
 10
11.03564
 20
9.789107
 30
0.0
 11
11.13564
 21
9.789107
 31
0.0
  0
LINE
  5
25B1
100
AcDbEntity
  8
D1
100
AcDbLine
 10
11.279551
 20
9.949107
 30
0.0
 11
11.559627
 21
9.949107
 31
0.0
  0
LINE
  5
25B2
100
AcDbEntity
  8
D1
100
AcDbLine
 10
11.08564
 20
10.143018
 30
0.0
 11
11.08564
 21
10.423093
 31
0.0
  0
LINE
  5
25B3
100
AcDbEntity
  8
D1
100
AcDbLine
 10
10.891729
 20
9.949107
 30
0.0
 11
10.611654
 21
9.949107
 31
0.0
  0
LINE
  5
25B4
100
AcDbEntity
  8
D1
100
AcDbLine
 10
11.222756
 20
10.086223
 30
0.0
 11
11.420799
 21
10.284266
 31
0.0
  0
LINE
  5
25B5
100
AcDbEntity
  8
D1
100
AcDbLine
 10
10.948524
 20
10.086223
 30
0.0
 11
10.750481
 21
10.284266
 31
0.0
  0
TEXT
  5
25B8
100
AcDbEntity
  8
D1
100
AcDbText
 10
10.170966
 20
9.90663
 30
0.0
 40
0.07
  1
COMMON
100
AcDbText
  0
TEXT
  5
25B9
100
AcDbEntity
  8
D1
100
AcDbText
 10
11.422241
 20
10.305581
 30
0.0
 40
0.07
  1
+12VDC
100
AcDbText
  0
TEXT
  5
25BA
100
AcDbEntity
  8
D1
100
AcDbText
 10
10.331948
 20
10.302277
 30
0.0
 40
0.07
  1
-12VDC
100
AcDbText
  0
TEXT
  5
25BB
100
AcDbEntity
  8
D1
100
AcDbText
 10
11.019784
 20
10.455159
 30
0.0
 40
0.07
  1
n.c.
100
AcDbText
  0
TEXT
  5
25BD
100
AcDbEntity
  8
D1
100
AcDbText
 10
11.61981
 20
9.924914
 30
0.0
 40
0.07
  1
n.c.
100
AcDbText
  0
TEXT
  5
25BE
100
AcDbEntity
  8
D1
100
AcDbText
 10
10.268648
 20
9.317876
 30
0.0
 40
0.08
  1
END VIEW OF 5-PIN DIN
 72
     1
 11
11.081982
 21
9.317876
 31
0.0
100
AcDbText
  0
TEXT
  5
25BF
100
AcDbEntity
  8
D1
100
AcDbText
 10
10.215315
 20
9.184543
 30
0.0
 40
0.08
  1
RECEPTACLE ON DETECTOR
 72
     1
 11
11.081982
 21
9.184543
 31
0.0
100
AcDbText
  0
SOLID
  5
25C0
100
AcDbEntity
  8
D1
100
AcDbTrace
 10
10.665943
 20
11.817359
 30
0.0
 11
10.68653
 21
11.843575
 31
0.0
 12
10.59759
 22
11.89223
 32
0.0
 13
10.59759
 23
11.89223
 33
0.0
  0
LINE
  5
25C1
100
AcDbEntity
  8
D1
100
AcDbLine
 10
10.676236
 20
11.830467
 30
0.0
 11
11.026251
 21
11.555594
 31
0.0
  0
TEXT
  5
25C2
100
AcDbEntity
  8
D1
100
AcDbText
 10
11.164035
 20
11.433181
 30
0.0
 40
0.08
  1
SM1T1, THREADED
100
AcDbText
  0
TEXT
  5
25C3
100
AcDbEntity
  8
D1
100
AcDbText
 10
11.164035
 20
11.299847
 30
0.0
 40
0.08
  1
COUPLER (REMOVEABLE)
100
AcDbText
  0
LINE
  5
25C4
100
AcDbEntity
  8
D1
100
AcDbLine
 10
9.642067
 20
12.608821
 30
0.0
 11
9.642067
 21
13.42411
 31
0.0
  0
LINE
  5
25C5
100
AcDbEntity
  8
D1
100
AcDbLine
 10
9.554648
 20
13.115182
 30
0.0
 11
9.554648
 21
13.42411
 31
0.0
  0
LINE
  5
25C6
100
AcDbEntity
  8
D1
100
AcDbLine
 10
9.742067
 20
13.40011
 30
0.0
 11
9.842067
 21
13.40011
 31
0.0
  0
LINE
  5
25C7
100
AcDbEntity
  8
D1
100
AcDbLine
 10
9.454648
 20
13.40011
 30
0.0
 11
9.354648
 21
13.40011
 31
0.0
  0
SOLID
  5
25C8
100
AcDbEntity
  8
D1
100
AcDbTrace
 10
9.742067
 20
13.416777
 30
0.0
 11
9.742067
 21
13.383443
 31
0.0
 12
9.642067
 22
13.40011
 32
0.0
 13
9.642067
 23
13.40011
 33
0.0
  0
SOLID
  5
25C9
100
AcDbEntity
  8
D1
100
AcDbTrace
 10
9.454648
 20
13.416777
 30
0.0
 11
9.454648
 21
13.383443
 31
0.0
 12
9.554648
 22
13.40011
 32
0.0
 13
9.554648
 23
13.40011
 33
0.0
  0
MTEXT
  5
25CA
100
AcDbEntity
  8
D1
100
AcDbMText
 10
9.160594
 20
13.403506
 30
0.0
 40
0.08
 41
0.0
 71
     5
 72
     5
  1
\A1;0.087
  0
LINE
  5
25D2
100
AcDbEntity
  8
D1
100
AcDbLine
 10
12.263249
 20
13.287821
 30
0.0
 11
12.263249
 21
13.492298
 31
0.0
  0
LINE
  5
25D3
100
AcDbEntity
  8
D1
100
AcDbLine
 10
12.886321
 20
13.127821
 30
0.0
 11
12.886321
 21
13.492298
 31
0.0
  0
LINE
  5
25D4
100
AcDbEntity
  8
D1
100
AcDbLine
 10
12.363249
 20
13.468298
 30
0.0
 11
12.425452
 21
13.468298
 31
0.0
  0
LINE
  5
25D5
100
AcDbEntity
  8
D1
100
AcDbLine
 10
12.786321
 20
13.468298
 30
0.0
 11
12.724118
 21
13.468298
 31
0.0
  0
SOLID
  5
25D6
100
AcDbEntity
  8
D1
100
AcDbTrace
 10
12.363249
 20
13.484965
 30
0.0
 11
12.363249
 21
13.451632
 31
0.0
 12
12.263249
 22
13.468298
 32
0.0
 13
12.263249
 23
13.468298
 33
0.0
  0
SOLID
  5
25D7
100
AcDbEntity
  8
D1
100
AcDbTrace
 10
12.786321
 20
13.484965
 30
0.0
 11
12.786321
 21
13.451632
 31
0.0
 12
12.886321
 22
13.468298
 32
0.0
 13
12.886321
 23
13.468298
 33
0.0
  0
MTEXT
  5
25D8
100
AcDbEntity
  8
D1
100
AcDbMText
 10
12.574785
 20
13.468298
 30
0.0
 40
0.08
 41
0.0
 71
     5
 72
     5
  1
\A1;0.62
  0
LINE
  5
25D9
100
AcDbEntity
  8
D1
100
AcDbLine
 10
12.263249
 20
13.287821
 30
0.0
 11
12.263249
 21
13.644298
 31
0.0
  0
LINE
  5
25DA
100
AcDbEntity
  8
D1
100
AcDbLine
 10
13.166321
 20
13.127821
 30
0.0
 11
13.166321
 21
13.644298
 31
0.0
  0
LINE
  5
25DB
100
AcDbEntity
  8
D1
100
AcDbLine
 10
12.363249
 20
13.620298
 30
0.0
 11
12.572118
 21
13.620298
 31
0.0
  0
LINE
  5
25DC
100
AcDbEntity
  8
D1
100
AcDbLine
 10
13.066321
 20
13.620298
 30
0.0
 11
12.857452
 21
13.620298
 31
0.0
  0
SOLID
  5
25DD
100
AcDbEntity
  8
D1
100
AcDbTrace
 10
12.363249
 20
13.636965
 30
0.0
 11
12.363249
 21
13.603632
 31
0.0
 12
12.263249
 22
13.620298
 32
0.0
 13
12.263249
 23
13.620298
 33
0.0
  0
SOLID
  5
25DE
100
AcDbEntity
  8
D1
100
AcDbTrace
 10
13.066321
 20
13.636965
 30
0.0
 11
13.066321
 21
13.603632
 31
0.0
 12
13.166321
 22
13.620298
 32
0.0
 13
13.166321
 23
13.620298
 33
0.0
  0
MTEXT
  5
25DF
100
AcDbEntity
  8
D1
100
AcDbMText
 10
12.714785
 20
13.620298
 30
0.0
 40
0.08
 41
0.0
 71
     5
 72
     5
  1
\A1;0.90
  0
SOLID
  5
25E0
100
AcDbEntity
  8
D1
100
AcDbTrace
 10
9.825257
 20
12.746249
 30
0.0
 11
9.797609
 21
12.764868
 31
0.0
 12
9.755576
 22
12.672613
 32
0.0
 13
9.755576
 23
12.672613
 33
0.0
  0
LINE
  5
25E1
100
AcDbEntity
  8
D1
100
AcDbLine
 10
9.811433
 20
12.755559
 30
0.0
 11
10.291403
 21
13.468298
 31
0.0
  0
TEXT
  5
25E2
100
AcDbEntity
  8
D1
100
AcDbText
 10
10.092381
 20
13.544806
 30
0.0
 40
0.08
  1
DETECTOR
100
AcDbText
  0
TEXT
  5
25E3
100
AcDbEntity
  8
D1
100
AcDbText
 10
8.382205
 20
9.398063
 30
0.0
 40
0.08
  1
DC POWER INPUT
 72
     1
 11
8.928872
 21
9.398063
 31
0.0
100
AcDbText
  0
LWPOLYLINE
  5
25E9
100
AcDbEntity
  8
BODY
100
AcDbPolyline
 90
        2
 70
     1
 43
0.2
 10
6.820274
 20
12.098049
 42
1.0
 10
7.020274
 20
12.098049
 42
1.0
  0
TEXT
  5
25EE
100
AcDbEntity
  8
SILK-SCREEN
100
AcDbText
 10
6.875008
 20
12.713119
 30
0.0
 40
0.05
  1
G
  7
HL-HD
100
AcDbText
  0
TEXT
  5
25EF
100
AcDbEntity
  8
SILK-SCREEN
100
AcDbText
 10
6.931568
 20
12.712952
 30
0.0
 40
0.05
  1
A
  7
HL-HD
100
AcDbText
  0
TEXT
  5
25F0
100
AcDbEntity
  8
SILK-SCREEN
100
AcDbText
 10
6.988633
 20
12.712952
 30
0.0
 40
0.05
  1
I
  7
HL-HD
100
AcDbText
  0
TEXT
  5
25F1
100
AcDbEntity
  8
SILK-SCREEN
100
AcDbText
 10
7.010634
 20
12.712952
 30
0.0
 40
0.05
  1
N
  7
HL-HD
100
AcDbText
  0
LINE
  5
25F4
100
AcDbEntity
  8
0
100
AcDbLine
 10
12.834759
 20
13.262821
 30
0.0
 11
12.834759
 21
11.762821
 31
0.0
  0
TEXT
  5
25FD
100
AcDbEntity
  8
D1
100
AcDbText
 10
9.918231
 20
10.828971
 30
0.0
 40
0.08
  1
(M4 TAP THRU -EC VERSION)
100
AcDbText
  0
VIEWPORT
  5
31
100
AcDbEntity
 67
     1
  8
0
100
AcDbViewport
 10
8.127787
 20
5.912162
 30
0.0
 40
21.720878
 41
11.875291
 68
     1
 69
     1
1001
ACAD
1000
MVIEW
1002
{
1070
    16
1010
0.0
1020
0.0
1030
0.0
1010
0.0
1020
0.0
1030
1.0
1040
0.0
1040
11.875291
1040
8.127787
1040
5.912162
1040
50.0
1040
0.0
1040
0.0
1070
     0
1070
     0
1070
     0
1070
     0
1070
     0
1070
     0
1070
     0
1070
     0
1040
0.0
1040
0.0
1040
0.0
1040
0.005
1040
0.005
1040
0.25
1040
0.25
1070
     0
1002
{
1002
}
1002
}
  0
TRACE
  5
32
100
AcDbEntity
 67
     1
  8
BORDER
100
AcDbTrace
 10
0.105666
 20
11.76052
 30
0.0
 11
0.138016
 21
11.72817
 31
0.0
 12
16.149909
 22
11.76052
 32
0.0
 13
16.117559
 23
11.72817
 33
0.0
  0
TRACE
  5
33
100
AcDbEntity
 67
     1
  8
BORDER
100
AcDbTrace
 10
0.121841
 20
0.096154
 30
0.0
 11
0.121841
 21
0.063804
 31
0.0
 12
16.133734
 22
0.096154
 32
0.0
 13
16.133734
 23
0.063804
 33
0.0
  0
TRACE
  5
34
100
AcDbEntity
 67
     1
  8
BORDER
100
AcDbTrace
 10
0.105666
 20
0.079979
 30
0.0
 11
0.138016
 21
0.079979
 31
0.0
 12
0.105666
 22
11.76052
 32
0.0
 13
0.138016
 23
11.72817
 33
0.0
  0
TRACE
  5
35
100
AcDbEntity
 67
     1
  8
BORDER
100
AcDbTrace
 10
16.149909
 20
11.76052
 30
0.0
 11
16.117559
 21
11.72817
 31
0.0
 12
16.149909
 22
0.079979
 32
0.0
 13
16.117559
 23
0.079979
 33
0.0
  0
TRACE
  5
36
100
AcDbEntity
 67
     1
  8
BORDER
100
AcDbTrace
 10
12.749797
 20
1.463151
 30
0.17469
 11
12.749797
 21
1.443741
 31
0.17469
 12
16.141694
 22
1.463151
 32
0.17469
 13
16.141694
 23
1.443741
 33
0.17469
 39
0.17469
  0
LINE
  5
37
100
AcDbEntity
 67
     1
  8
BORDER
100
AcDbLine
 39
0.17469
 10
12.744944
 20
1.453446
 30
0.17469
 11
16.141694
 21
1.453446
 31
0.17469
  0
TRACE
  5
38
100
AcDbEntity
 67
     1
  8
BORDER
100
AcDbTrace
 10
16.141694
 20
1.734891
 30
0.17469
 11
16.141694
 21
1.754301
 31
0.17469
 12
12.749797
 22
1.734891
 32
0.17469
 13
12.749797
 23
1.754301
 33
0.17469
 39
0.17469
  0
TRACE
  5
39
100
AcDbEntity
 67
     1
  8
BORDER
100
AcDbTrace
 10
14.812109
 20
1.269051
 30
0.17469
 11
14.812109
 21
1.288461
 31
0.17469
 12
12.744944
 22
1.269051
 32
0.17469
 13
12.744944
 23
1.288461
 33
0.17469
 39
0.17469
  0
TRACE
  5
3A
100
AcDbEntity
 67
     1
  8
BORDER
100
AcDbTrace
 10
14.802404
 20
1.288461
 30
0.17469
 11
14.821814
 21
1.269051
 31
0.17469
 12
16.141694
 22
1.288461
 32
0.17469
 13
16.141694
 23
1.269051
 33
0.17469
 39
0.17469
  0
TRACE
  5
3B
100
AcDbEntity
 67
     1
  8
BORDER
100
AcDbTrace
 10
14.802404
 20
0.094156
 30
0.17469
 11
14.821814
 21
0.094156
 31
0.17469
 12
14.802404
 22
1.288461
 32
0.17469
 13
14.821814
 23
1.269051
 33
0.17469
 39
0.17469
  0
LINE
  5
3C
100
AcDbEntity
 67
     1
  8
BORDER
100
AcDbLine
 39
0.17469
 10
14.123054
 20
0.405306
 30
0.17469
 11
14.123054
 21
0.696456
 31
0.17469
  0
LINE
  5
3D
100
AcDbEntity
 67
     1
  8
BORDER
100
AcDbLine
 39
0.17469
 10
13.433999
 20
0.405306
 30
0.17469
 11
13.433999
 21
0.992458
 31
0.17469
  0
LINE
  5
3E
100
AcDbEntity
 67
     1
  8
BORDER
100
AcDbLine
 39
0.17469
 10
14.123054
 20
0.696456
 30
0.17469
 11
14.123054
 21
0.987606
 31
0.17469
  0
LINE
  5
3F
100
AcDbEntity
 67
     1
  8
BORDER
100
AcDbLine
 39
0.27
 10
13.778527
 20
0.696456
 30
0.0
 11
13.778527
 21
0.074042
 31
0.0
  0
TEXT
  5
40
100
AcDbEntity
 67
     1
  8
BORDER
100
AcDbText
 10
12.864296
 20
0.144042
 30
0.0
 40
0.11
  1
2058-E0W
100
AcDbText
  0
TEXT
  5
41
100
AcDbEntity
 67
     1
  8
BORDER
100
AcDbText
 10
13.589697
 20
0.739042
 30
0.0
 40
0.1
  1
SR
100
AcDbText
  0
TEXT
  5
42
100
AcDbEntity
 67
     1
  8
BORDER
100
AcDbText
 10
13.016983
 20
1.509006
 30
0.0
 40
0.11
  1
ENGINEERING SUPPORT DRAWING
100
AcDbText
  0
TEXT
  5
43
100
AcDbEntity
 67
     1
  8
BORDER
100
AcDbText
 10
12.832289
 20
1.327281
 30
0.17469
 40
0.067935
  1
TOL: X.XXX=+/-0.005 X.XX=+/-0.010 ANGULAR +/-30'
100
AcDbText
  0
TEXT
  5
44
100
AcDbEntity
 67
     1
  8
BORDER
100
AcDbText
 10
13.497082
 20
0.885703
 30
0.17469
 40
0.067935
  1
ENGR.
100
AcDbText
  0
LINE
  5
45
100
AcDbEntity
 67
     1
  8
BORDER
100
AcDbLine
 10
12.744944
 20
0.405306
 30
0.17469
 11
14.809868
 21
0.405306
 31
0.17469
  0
LINE
  5
46
100
AcDbEntity
 67
     1
  8
BORDER
100
AcDbLine
 10
12.744944
 20
0.696456
 30
0.17469
 11
14.809868
 21
0.696456
 31
0.17469
  0
LINE
  5
47
100
AcDbEntity
 67
     1
  8
BORDER
100
AcDbLine
 10
12.744944
 20
0.987606
 30
0.17469
 11
14.809868
 21
0.987606
 31
0.17469
  0
LINE
  5
48
100
AcDbEntity
 67
     1
  8
BORDER
100
AcDbLine
 10
12.744944
 20
1.278756
 30
0.17469
 11
16.141694
 21
1.278756
 31
0.17469
  0
TRACE
  5
49
100
AcDbEntity
 67
     1
  8
BORDER
100
AcDbTrace
 10
16.141694
 20
2.108533
 30
0.17469
 11
16.141694
 21
2.157058
 31
0.17469
 12
12.769207
 22
2.108533
 32
0.17469
 13
12.720682
 23
2.157058
 33
0.17469
  0
LINE
  5
4A
100
AcDbEntity
 67
     1
  8
BORDER
100
AcDbLine
 10
12.744944
 20
1.744596
 30
0.17469
 11
16.141694
 21
1.744596
 31
0.17469
  0
TRACE
  5
4B
100
AcDbEntity
 67
     1
  8
BORDER
100
AcDbTrace
 10
12.769207
 20
2.108533
 30
0.17469
 11
12.720682
 21
2.157058
 31
0.17469
 12
12.769207
 22
0.079156
 32
0.17469
 13
12.720682
 23
0.079156
 33
0.17469
  0
TEXT
  5
4C
100
AcDbEntity
 67
     1
  8
BORDER
100
AcDbText
 10
12.832289
 20
1.642693
 30
0.17469
 40
0.067935
  1
TITLE
100
AcDbText
  0
TEXT
  5
4D
100
AcDbEntity
 67
     1
  8
BORDER
100
AcDbText
 10
12.899697
 20
0.739042
 30
0.0
 40
0.1
  1
TD
100
AcDbText
  0
TEXT
  5
4E
100
AcDbEntity
 67
     1
  8
BORDER
100
AcDbText
 10
12.844962
 20
0.449042
 30
0.0
 40
0.08
  1
07/08/99
100
AcDbText
  0
TEXT
  5
4F
100
AcDbEntity
 67
     1
  8
BORDER
100
AcDbText
 10
12.837142
 20
0.599406
 30
0.17469
 40
0.067935
  1
DATE
100
AcDbText
  0
TEXT
  5
50
100
AcDbEntity
 67
     1
  8
BORDER
100
AcDbText
 10
12.837142
 20
0.308256
 30
0.17469
 40
0.067935
  1
DWG NO.
100
AcDbText
  0
TEXT
  5
51
100
AcDbEntity
 67
     1
  8
BORDER
100
AcDbText
 10
13.499272
 20
0.594553
 30
0.17469
 40
0.072788
  1
REV
100
AcDbText
  0
TEXT
  5
52
100
AcDbEntity
 67
     1
  8
BORDER
100
AcDbText
 10
12.832289
 20
1.172001
 30
0.17469
 40
0.067935
  1
MATERIAL
100
AcDbText
  0
TEXT
  5
53
100
AcDbEntity
 67
     1
  8
BORDER
100
AcDbText
 10
12.832289
 20
0.885703
 30
0.17469
 40
0.067935
  1
DRAWN
100
AcDbText
  0
TEXT
  5
54
100
AcDbEntity
 67
     1
  8
BORDER
100
AcDbText
 10
13.913021
 20
0.4538
 30
0.0
 40
0.075
  1
B
 72
     1
 11
13.938021
 21
0.4538
 31
0.0
100
AcDbText
  0
TEXT
  5
55
100
AcDbEntity
 67
     1
  8
BORDER
100
AcDbText
 10
13.828021
 20
0.5963
 30
0.0
 40
0.075
  1
SIZE
 72
     1
 11
13.953021
 21
0.5963
 31
0.0
100
AcDbText
  0
TEXT
  5
56
100
AcDbEntity
 67
     1
  8
SHEET2
100
AcDbText
 10
14.259697
 20
0.449042
 30
0.0
 40
0.08
  1
2
100
AcDbText
  0
TEXT
  5
57
100
AcDbEntity
 67
     1
  8
BORDER
100
AcDbText
 10
14.599697
 20
0.449042
 30
0.0
 40
0.08
  1
1
100
AcDbText
  0
TEXT
  5
58
100
AcDbEntity
 67
     1
  8
BORDER
100
AcDbText
 10
14.855782
 20
1.172001
 30
0.17469
 40
0.067935
  1
WHERE USED
100
AcDbText
  0
LINE
  5
59
100
AcDbEntity
 67
     1
  8
BORDER
100
AcDbLine
 10
14.812109
 20
1.278756
 30
0.17469
 11
14.812109
 21
0.089303
 31
0.17469
  0
TEXT
  5
5A
100
AcDbEntity
 67
     1
  8
BORDER
100
AcDbText
 10
14.205547
 20
0.599406
 30
0.17469
 40
0.067935
  1
SHEET
100
AcDbText
  0
TEXT
  5
5B
100
AcDbEntity
 67
     1
  8
BORDER
100
AcDbText
 10
13.842142
 20
0.308256
 30
0.17469
 40
0.067935
  1
PART NO.
100
AcDbText
  0
TEXT
  5
5C
100
AcDbEntity
 67
     1
  8
BORDER
100
AcDbText
 10
14.421549
 20
0.448978
 30
0.17469
 40
0.067935
  1
OF
100
AcDbText
  0
TEXT
  5
5D
100
AcDbEntity
 67
     1
  8
BORDER
100
AcDbText
 10
14.186137
 20
0.885703
 30
0.17469
 40
0.067935
  1
APPROVED
100
AcDbText
  0
LWPOLYLINE
  5
5E
100
AcDbEntity
 67
     1
  8
BORDER
100
AcDbPolyline
 90
        2
 70
     0
 43
0.010918
 38
0.34938
 10
13.716883
 20
1.921031
 42
0.939934
 10
13.708702
 20
2.053011
 42
0.939934
  0
LWPOLYLINE
  5
62
100
AcDbEntity
 67
     1
  8
BORDER
100
AcDbPolyline
 90
        2
 70
     0
 43
0.010918
 38
0.34938
 10
13.763474
 20
1.863792
 42
0.358135
 10
13.717029
 20
1.91018
 42
0.358135
  0
SOLID
  5
66
100
AcDbEntity
 67
     1
  8
BORDER
100
AcDbTrace
 10
13.717043
 20
1.848631
 30
0.34938
 11
13.721256
 21
1.799453
 31
0.34938
 12
13.768907
 22
1.864328
 32
0.34938
 13
13.77489
 23
1.803604
 33
0.34938
  0
SOLID
  5
67
100
AcDbEntity
 67
     1
  8
BORDER
100
AcDbTrace
 10
13.717043
 20
1.848631
 30
0.34938
 11
13.768907
 21
1.864328
 31
0.34938
 12
13.718137
 22
1.864924
 32
0.34938
 13
13.76242
 23
1.880434
 33
0.34938
  0
SOLID
  5
68
100
AcDbEntity
 67
     1
  8
BORDER
100
AcDbTrace
 10
13.718137
 20
1.864924
 30
0.34938
 11
13.76242
 21
1.880434
 31
0.34938
 12
13.705591
 22
1.881911
 32
0.34938
 13
13.735112
 23
1.90259
 33
0.34938
  0
SOLID
  5
69
100
AcDbEntity
 67
     1
  8
BORDER
100
AcDbTrace
 10
13.712257
 20
1.934786
 30
0.34938
 11
13.733117
 21
1.92506
 31
0.34938
 12
13.731281
 22
1.977462
 32
0.34938
 13
13.773665
 23
1.96389
 33
0.34938
  0
SOLID
  5
6A
100
AcDbEntity
 67
     1
  8
BORDER
100
AcDbTrace
 10
13.731281
 20
1.977462
 30
0.34938
 11
13.773665
 21
1.96389
 31
0.34938
 12
13.72563
 22
2.000082
 32
0.34938
 13
13.768014
 23
2.022136
 33
0.34938
  0
SOLID
  5
6B
100
AcDbEntity
 67
     1
  8
BORDER
100
AcDbTrace
 10
13.72563
 20
2.000082
 30
0.34938
 11
13.768014
 21
2.022136
 31
0.34938
 12
13.706981
 22
2.019874
 32
0.34938
 13
13.726195
 23
2.050976
 33
0.34938
  0
SOLID
  5
6C
100
AcDbEntity
 67
     1
  8
BORDER
100
AcDbTrace
 10
13.725784
 20
1.785517
 30
0.34938
 11
13.782059
 21
1.785517
 31
0.34938
 12
13.723206
 22
1.793107
 32
0.34938
 13
13.773836
 23
1.798429
 33
0.34938
  0
SOLID
  5
6D
100
AcDbEntity
 67
     1
  8
BORDER
100
AcDbTrace
 10
13.723206
 20
1.793107
 30
0.34938
 11
13.773836
 21
1.798429
 31
0.34938
 12
13.721256
 22
1.799453
 32
0.34938
 13
13.77489
 23
1.803604
 33
0.34938
  0
SOLID
  5
6E
100
AcDbEntity
 67
     1
  8
BORDER
100
AcDbTrace
 10
13.076166
 20
2.05847
 30
0.34938
 11
13.130756
 21
2.05847
 31
0.34938
 12
13.076166
 22
1.785517
 32
0.34938
 13
13.130756
 23
1.785517
 33
0.34938
  0
SOLID
  5
6F
100
AcDbEntity
 67
     1
  8
BORDER
100
AcDbTrace
 10
12.93423
 20
1.785517
 30
0.34938
 11
12.988821
 21
1.785517
 31
0.34938
 12
12.93423
 22
2.013433
 32
0.34938
 13
12.988821
 23
2.013433
 33
0.34938
  0
SOLID
  5
70
100
AcDbEntity
 67
     1
  8
BORDER
100
AcDbTrace
 10
12.846885
 20
2.05847
 30
0.34938
 11
13.076166
 21
2.05847
 31
0.34938
 12
12.846885
 22
2.013433
 32
0.34938
 13
13.076166
 23
2.013433
 33
0.34938
  0
LWPOLYLINE
  5
71
100
AcDbEntity
 67
     1
  8
BORDER
100
AcDbPolyline
 90
        4
 70
     1
 43
0.010918
 38
0.34938
 10
13.361175
 20
1.982948
 42
0.228527
 10
13.36245
 20
1.859016
 42
0.623004
 10
13.493762
 20
1.859431
 42
0.229006
 10
13.494142
 20
1.983489
 42
0.632312
  0
LWPOLYLINE
  5
77
100
AcDbEntity
 67
     1
  8
BORDER
100
AcDbPolyline
 90
        2
 70
     0
 43
0.010918
 38
0.34938
 10
13.545433
 20
1.974541
 42
0.741471
 10
13.310596
 20
1.973154
 42
0.741471
  0
LWPOLYLINE
  5
7B
100
AcDbEntity
 67
     1
  8
BORDER
100
AcDbPolyline
 90
        2
 70
     0
 43
0.010918
 38
0.34938
 10
13.310141
 20
1.875747
 42
0.761639
 10
13.547465
 20
1.878246
 42
0.761639
  0
SOLID
  5
7F
100
AcDbEntity
 67
     1
  8
BORDER
100
AcDbTrace
 10
13.427434
 20
2.064008
 30
0.34938
 11
13.426281
 21
2.02478
 31
0.34938
 12
13.354794
 22
2.038625
 32
0.34938
 13
13.375548
 23
2.007473
 33
0.34938
  0
SOLID
  5
80
100
AcDbEntity
 67
     1
  8
BORDER
100
AcDbTrace
 10
13.379422
 20
1.793568
 30
0.34938
 11
13.399335
 21
1.821925
 31
0.34938
 12
13.428439
 22
1.784371
 32
0.34938
 13
13.428439
 23
1.818859
 33
0.34938
  0
LWPOLYLINE
  5
81
100
AcDbEntity
 67
     1
  8
BORDER
100
AcDbPolyline
 90
        2
 70
     0
 43
0.010918
 38
0.34938
 10
13.310596
 20
1.973154
 42
0.143054
 10
13.310141
 20
1.875747
 42
0.143054
  0
SOLID
  5
85
100
AcDbEntity
 67
     1
  8
BORDER
100
AcDbTrace
 10
13.302067
 20
1.921558
 30
0.34938
 11
13.346489
 21
1.917726
 31
0.34938
 12
13.32198
 22
1.843384
 32
0.34938
 13
13.361041
 23
1.857946
 33
0.34938
  0
SOLID
  5
86
100
AcDbEntity
 67
     1
  8
BORDER
100
AcDbTrace
 10
13.244032
 20
2.05847
 30
0.34938
 11
13.298622
 21
2.05847
 31
0.34938
 12
13.244032
 22
1.785517
 32
0.34938
 13
13.298622
 23
1.785517
 33
0.34938
  0
SOLID
  5
87
100
AcDbEntity
 67
     1
  8
BORDER
100
AcDbTrace
 10
13.32198
 20
1.843384
 30
0.34938
 11
13.361041
 21
1.857946
 31
0.34938
 12
13.379422
 22
1.793568
 32
0.34938
 13
13.399335
 23
1.821925
 33
0.34938
  0
SOLID
  5
88
100
AcDbEntity
 67
     1
  8
BORDER
100
AcDbTrace
 10
13.244032
 20
1.952019
 30
0.34938
 11
13.130756
 21
1.952019
 31
0.34938
 12
13.244032
 22
1.905617
 32
0.34938
 13
13.130756
 23
1.905617
 33
0.34938
  0
SOLID
  5
89
100
AcDbEntity
 67
     1
  8
BORDER
100
AcDbTrace
 10
13.354794
 20
2.038625
 30
0.34938
 11
13.375548
 21
2.007473
 31
0.34938
 12
13.317897
 22
1.997089
 32
0.34938
 13
13.3571
 23
1.969398
 33
0.34938
  0
SOLID
  5
8A
100
AcDbEntity
 67
     1
  8
BORDER
100
AcDbTrace
 10
13.317897
 20
1.997089
 30
0.34938
 11
13.3571
 21
1.969398
 31
0.34938
 12
13.302067
 22
1.921558
 32
0.34938
 13
13.346489
 23
1.917726
 33
0.34938
  0
SOLID
  5
8B
100
AcDbEntity
 67
     1
  8
BORDER
100
AcDbTrace
 10
13.558039
 20
1.785517
 30
0.34938
 11
13.558039
 21
2.05847
 31
0.34938
 12
13.613799
 22
1.785517
 32
0.34938
 13
13.613799
 23
2.052523
 33
0.34938
  0
LWPOLYLINE
  5
8C
100
AcDbEntity
 67
     1
  8
BORDER
100
AcDbPolyline
 90
        2
 70
     0
 43
0.010918
 38
0.34938
 10
13.722482
 20
1.849097
 42
0.389398
 10
13.666963
 20
1.900063
 42
0.389398
  0
LWPOLYLINE
  5
90
100
AcDbEntity
 67
     1
  8
BORDER
100
AcDbPolyline
 90
        2
 70
     0
 43
0.010918
 38
0.34938
 10
13.547465
 20
1.878246
 42
0.140695
 10
13.545433
 20
1.974541
 42
0.140695
  0
SOLID
  5
94
100
AcDbEntity
 67
     1
  8
BORDER
100
AcDbTrace
 10
13.499667
 20
1.808896
 30
0.34938
 11
13.48052
 21
1.834954
 31
0.34938
 12
13.537962
 22
1.851815
 32
0.34938
 13
13.505795
 23
1.885537
 33
0.34938
  0
SOLID
  5
95
100
AcDbEntity
 67
     1
  8
BORDER
100
AcDbTrace
 10
13.537962
 20
1.851815
 30
0.34938
 11
13.505795
 21
1.885537
 31
0.34938
 12
13.554812
 22
1.933054
 32
0.34938
 13
13.507326
 23
1.937652
 33
0.34938
  0
SOLID
  5
96
100
AcDbEntity
 67
     1
  8
BORDER
100
AcDbTrace
 10
13.428439
 20
1.784371
 30
0.34938
 11
13.428439
 21
1.818859
 31
0.34938
 12
13.499667
 22
1.808896
 32
0.34938
 13
13.48052
 23
1.834954
 33
0.34938
  0
LWPOLYLINE
  5
97
100
AcDbEntity
 67
     1
  8
BORDER
100
AcDbPolyline
 90
        2
 70
     0
 43
0.010918
 38
0.34938
 10
13.726695
 20
1.799919
 42
0.114836
 10
13.730458
 20
1.788337
 42
0.114836
  0
LWPOLYLINE
  5
9B
100
AcDbEntity
 67
     1
  8
BORDER
100
AcDbPolyline
 90
        2
 70
     0
 43
0.010918
 38
0.34938
 10
13.708702
 20
2.053011
 10
13.558039
 20
2.053011
  0
SOLID
  5
9F
100
AcDbEntity
 67
     1
  8
BORDER
100
AcDbTrace
 10
13.554812
 20
1.933054
 30
0.34938
 11
13.507326
 21
1.937652
 31
0.34938
 12
13.531835
 22
2.01046
 32
0.34938
 13
13.491243
 23
1.9913
 33
0.34938
  0
SOLID
  5
A0
100
AcDbEntity
 67
     1
  8
BORDER
100
AcDbTrace
 10
13.531835
 20
2.01046
 30
0.34938
 11
13.491243
 21
1.9913
 31
0.34938
 12
13.477457
 22
2.053379
 32
0.34938
 13
13.46367
 23
2.014293
 33
0.34938
  0
SOLID
  5
A1
100
AcDbEntity
 67
     1
  8
BORDER
100
AcDbTrace
 10
13.477457
 20
2.053379
 30
0.34938
 11
13.46367
 21
2.014293
 31
0.34938
 12
13.427434
 22
2.064008
 32
0.34938
 13
13.426281
 23
2.02478
 33
0.34938
  0
LWPOLYLINE
  5
A2
100
AcDbEntity
 67
     1
  8
BORDER
100
AcDbPolyline
 90
        2
 70
     0
 43
0.010918
 38
0.34938
 10
13.683555
 20
1.930291
 42
1.0
 10
13.683555
 20
2.022317
 42
1.0
  0
SOLID
  5
A6
100
AcDbEntity
 67
     1
  8
BORDER
100
AcDbTrace
 10
13.613799
 20
2.016858
 30
0.34938
 11
13.613799
 21
2.052523
 31
0.34938
 12
13.683555
 22
2.016858
 32
0.34938
 13
13.708702
 23
2.05847
 33
0.34938
  0
SOLID
  5
A7
100
AcDbEntity
 67
     1
  8
BORDER
100
AcDbTrace
 10
13.613799
 20
1.93575
 30
0.34938
 11
13.613799
 21
1.894604
 31
0.34938
 12
13.683555
 22
1.93575
 32
0.34938
 13
13.666963
 23
1.894604
 33
0.34938
  0
SOLID
  5
A8
100
AcDbEntity
 67
     1
  8
BORDER
100
AcDbTrace
 10
13.705591
 20
1.881911
 30
0.34938
 11
13.735112
 21
1.90259
 31
0.34938
 12
13.690779
 22
1.896652
 32
0.34938
 13
13.717557
 23
1.915614
 33
0.34938
  0
SOLID
  5
A9
100
AcDbEntity
 67
     1
  8
BORDER
100
AcDbTrace
 10
13.690779
 20
1.896652
 30
0.34938
 11
13.717557
 21
1.915614
 31
0.34938
 12
13.666963
 22
1.894604
 32
0.34938
 13
13.683555
 23
1.93575
 33
0.34938
  0
SOLID
  5
AA
100
AcDbEntity
 67
     1
  8
BORDER
100
AcDbTrace
 10
13.706981
 20
2.019874
 30
0.34938
 11
13.726195
 21
2.050976
 31
0.34938
 12
13.683555
 22
2.016858
 32
0.34938
 13
13.708702
 23
2.05847
 33
0.34938
  0
SOLID
  5
AB
100
AcDbEntity
 67
     1
  8
BORDER
100
AcDbTrace
 10
13.712257
 20
1.934786
 30
0.34938
 11
13.733117
 21
1.92506
 31
0.34938
 12
13.683555
 22
1.93575
 32
0.34938
 13
13.717557
 23
1.915614
 33
0.34938
  0
TEXT
  5
AC
100
AcDbEntity
 67
     1
  8
BORDER
100
AcDbText
 10
14.965664
 20
1.960207
 30
0.34938
 40
0.109181
  1
PO BOX 366
100
AcDbText
  0
TEXT
  5
AD
100
AcDbEntity
 67
     1
  8
BORDER
100
AcDbText
 10
14.965664
 20
1.778238
 30
0.34938
 40
0.109181
  1
NEWTON NJ
100
AcDbText
  0
ARC
  5
AE
100
AcDbEntity
 67
     1
  8
BORDER
100
AcDbCircle
 10
14.35698
 20
1.860495
 30
0.34938
 40
0.069808
100
AcDbArc
 50
297.452648
 51
341.332312
  0
ARC
  5
AF
100
AcDbEntity
 67
     1
  8
BORDER
100
AcDbCircle
 10
14.366706
 20
1.989406
 30
0.34938
 40
0.052103
100
AcDbArc
 50
313.157563
 51
358.653261
  0
ARC
  5
B0
100
AcDbEntity
 67
     1
  8
BORDER
100
AcDbCircle
 10
14.357376
 20
1.989626
 30
0.34938
 40
0.061436
100
AcDbArc
 50
358.653261
 51
58.670206
  0
LWPOLYLINE
  5
B1
100
AcDbEntity
 67
     1
  8
BORDER
100
AcDbPolyline
 90
       14
 70
     0
 43
0.0
 38
0.34938
 10
14.426431
 20
1.867546
 10
14.470198
 20
1.867546
 42
0.302044
 10
14.498187
 20
1.826311
 42
0.26537
 10
14.573231
 20
1.836196
 42
0.635606
 10
14.561118
 20
1.892652
 42
-0.000944
 10
14.471646
 20
1.913503
 42
-0.344245
 10
14.41885
 20
1.97921
 42
-0.322222
 10
14.472996
 20
2.056742
 42
-0.141736
 10
14.56555
 20
2.061941
 42
-0.333774
 10
14.63196
 20
1.983261
 10
14.577987
 20
1.983261
 42
0.301979
 10
14.552203
 20
2.019094
 42
0.197288
 10
14.494965
 20
2.01743
 42
0.728374
 10
14.501472
 20
1.956771
 42
0.001957
  0
ARC
  5
C1
100
AcDbEntity
 67
     1
  8
BORDER
100
AcDbCircle
 10
14.35698
 20
1.860495
 30
0.34938
 40
0.069808
100
AcDbArc
 50
5.797667
 51
41.821431
  0
LINE
  5
C2
100
AcDbEntity
 67
     1
  8
BORDER
100
AcDbLine
 10
14.043087
 20
1.885145
 30
0.34938
 11
14.122274
 21
1.885145
 31
0.34938
  0
LINE
  5
C3
100
AcDbEntity
 67
     1
  8
BORDER
100
AcDbLine
 10
14.08268
 20
2.01367
 30
0.34938
 11
14.043087
 21
1.885145
 31
0.34938
  0
LWPOLYLINE
  5
C4
100
AcDbEntity
 67
     1
  8
BORDER
100
AcDbPolyline
 90
        4
 70
     0
 43
0.0
 38
0.34938
 10
14.134887
 20
1.844202
 10
14.030474
 20
1.844202
 10
14.012395
 20
1.785517
 10
13.955075
 20
1.785517
  0
LWPOLYLINE
  5
CA
100
AcDbEntity
 67
     1
  8
BORDER
100
AcDbPolyline
 90
        4
 70
     0
 43
0.0
 38
0.34938
 10
13.971547
 20
1.831919
 10
14.051973
 20
2.05847
 10
14.113388
 20
2.05847
 10
14.203433
 20
1.804822
  0
LINE
  5
D0
100
AcDbEntity
 67
     1
  8
BORDER
100
AcDbLine
 10
13.837705
 20
1.831919
 30
0.34938
 11
13.837705
 21
2.05847
 31
0.34938
  0
LINE
  5
D1
100
AcDbEntity
 67
     1
  8
BORDER
100
AcDbLine
 10
13.780385
 20
2.05847
 30
0.34938
 11
13.780385
 21
1.785517
 31
0.34938
  0
LINE
  5
D2
100
AcDbEntity
 67
     1
  8
BORDER
100
AcDbLine
 10
13.780385
 20
1.785517
 30
0.34938
 11
13.974181
 21
1.785517
 31
0.34938
  0
LINE
  5
D3
100
AcDbEntity
 67
     1
  8
BORDER
100
AcDbLine
 10
13.971547
 20
1.831919
 30
0.34938
 11
13.837705
 21
1.831919
 31
0.34938
  0
LWPOLYLINE
  5
D4
100
AcDbEntity
 67
     1
  8
BORDER
100
AcDbPolyline
 90
        2
 70
     0
 43
0.010918
 38
0.34938
 10
13.769457
 20
1.803068
 42
0.095067
 10
13.773817
 20
1.788338
 42
0.140492
  0
LINE
  5
D8
100
AcDbEntity
 67
     1
  8
BORDER
100
AcDbLine
 10
13.837705
 20
2.05847
 30
0.34938
 11
13.780385
 21
2.05847
 31
0.34938
  0
ARC
  5
D9
100
AcDbEntity
 67
     1
  8
BORDER
100
AcDbCircle
 10
14.33057
 20
1.868797
 30
0.34938
 40
0.038184
100
AcDbArc
 50
313.227508
 51
90.0
  0
LINE
  5
DA
100
AcDbEntity
 67
     1
  8
BORDER
100
AcDbLine
 10
14.258023
 20
1.906981
 30
0.34938
 11
14.258023
 21
1.827825
 31
0.34938
  0
LINE
  5
DB
100
AcDbEntity
 67
     1
  8
BORDER
100
AcDbLine
 10
14.203433
 20
2.05847
 30
0.34938
 11
14.203433
 21
1.804822
 31
0.34938
  0
LINE
  5
DC
100
AcDbEntity
 67
     1
  8
BORDER
100
AcDbLine
 10
14.203433
 20
1.785517
 30
0.34938
 11
14.335815
 21
1.785517
 31
0.34938
  0
LWPOLYLINE
  5
DD
100
AcDbEntity
 67
     1
  8
BORDER
100
AcDbPolyline
 90
        3
 70
     0
 43
0.0
 38
0.34938
 10
14.210286
 20
1.785517
 10
14.152966
 20
1.785517
 10
14.134887
 20
1.844202
  0
ARC
  5
E2
100
AcDbEntity
 67
     1
  8
BORDER
100
AcDbCircle
 10
14.323532
 20
1.876285
 30
0.34938
 40
0.04846
100
AcDbArc
 50
270.0
 51
313.227508
  0
LINE
  5
E3
100
AcDbEntity
 67
     1
  8
BORDER
100
AcDbLine
 10
14.258023
 20
1.827825
 30
0.34938
 11
14.323532
 21
1.827825
 31
0.34938
  0
ARC
  5
E4
100
AcDbEntity
 67
     1
  8
BORDER
100
AcDbCircle
 10
14.335815
 20
1.901235
 30
0.34938
 40
0.115718
100
AcDbArc
 50
270.0
 51
297.452648
  0
LINE
  5
E5
100
AcDbEntity
 67
     1
  8
BORDER
100
AcDbLine
 10
14.330957
 20
2.05847
 30
0.34938
 11
14.203433
 21
2.05847
 31
0.34938
  0
LINE
  5
E6
100
AcDbEntity
 67
     1
  8
BORDER
100
AcDbLine
 10
14.122274
 20
1.885145
 30
0.34938
 11
14.08268
 21
2.01367
 31
0.34938
  0
LINE
  5
E7
100
AcDbEntity
 67
     1
  8
BORDER
100
AcDbLine
 10
14.33057
 20
1.906981
 30
0.34938
 11
14.258023
 21
1.906981
 31
0.34938
  0
ARC
  5
E8
100
AcDbEntity
 67
     1
  8
BORDER
100
AcDbCircle
 10
14.327044
 20
1.983408
 30
0.34938
 40
0.034119
100
AcDbArc
 50
270.0
 51
90.000005
  0
LINE
  5
E9
100
AcDbEntity
 67
     1
  8
BORDER
100
AcDbLine
 10
14.258023
 20
1.949289
 30
0.34938
 11
14.327044
 21
1.949289
 31
0.34938
  0
LINE
  5
EA
100
AcDbEntity
 67
     1
  8
BORDER
100
AcDbLine
 10
14.258023
 20
2.017527
 30
0.34938
 11
14.258023
 21
1.949289
 31
0.34938
  0
LINE
  5
EB
100
AcDbEntity
 67
     1
  8
BORDER
100
AcDbLine
 10
14.327044
 20
2.017527
 30
0.34938
 11
14.258023
 21
2.017527
 31
0.34938
  0
ARC
  5
EC
100
AcDbEntity
 67
     1
  8
BORDER
100
AcDbCircle
 10
14.330957
 20
1.946225
 30
0.34938
 40
0.112245
100
AcDbArc
 50
58.670206
 51
90.0
  0
ARC
  5
ED
100
AcDbEntity
 67
     1
  8
BORDER
100
AcDbCircle
 10
14.335982
 20
1.841706
 30
0.34938
 40
0.097985
100
AcDbArc
 50
41.821431
 51
67.21117
  0
ARC
  5
EE
100
AcDbEntity
 67
     1
  8
BORDER
100
AcDbCircle
 10
14.326262
 20
2.03254
 30
0.34938
 40
0.111232
100
AcDbArc
 50
295.378395
 51
313.157563
  0
SOLID
  5
EF
100
AcDbEntity
 67
     1
  8
BORDER
100
AcDbTrace
 10
14.683586
 20
1.778584
 30
0.34938
 11
14.683586
 21
1.805547
 31
0.34938
 12
14.811983
 22
1.778584
 32
0.34938
 13
14.811983
 23
1.805547
 33
0.34938
  0
SOLID
  5
F0
100
AcDbEntity
 67
     1
  8
BORDER
100
AcDbTrace
 10
14.811983
 20
1.828017
 30
0.34938
 11
14.683586
 21
1.828017
 31
0.34938
 12
14.811983
 22
1.85498
 32
0.34938
 13
14.683586
 23
1.85498
 33
0.34938
  0
SOLID
  5
F1
100
AcDbEntity
 67
     1
  8
BORDER
100
AcDbTrace
 10
14.683586
 20
1.937154
 30
0.34938
 11
14.811983
 21
1.937154
 31
0.34938
 12
14.683586
 22
1.910191
 32
0.34938
 13
14.811983
 23
1.910191
 33
0.34938
  0
SOLID
  5
F2
100
AcDbEntity
 67
     1
  8
BORDER
100
AcDbTrace
 10
14.683586
 20
1.855622
 30
0.34938
 11
14.81198
 21
1.936463
 31
0.34938
 12
14.683595
 22
1.829892
 32
0.34938
 13
14.811983
 23
1.909549
 33
0.34938
  0
LWPOLYLINE
  5
F3
100
AcDbEntity
 67
     1
  8
BORDER
100
AcDbPolyline
 90
        6
 70
     0
 43
0.005136
 38
0.34938
 10
14.722736
 20
2.041629
 42
0.342627
 10
14.697973
 20
2.015297
 42
0.294281
 10
14.715619
 20
1.981228
 42
0.273538
 10
14.779841
 20
1.982096
 42
0.20817
 10
14.796164
 20
2.005312
 42
0.418985
 10
14.770998
 20
2.042799
 42
0.418985
  0
LWPOLYLINE
  5
FB
100
AcDbEntity
 67
     1
  8
BORDER
100
AcDbPolyline
 90
        2
 70
     0
 43
0.005136
 38
0.34938
 10
14.719873
 20
1.9573
 42
0.270661
 10
14.792793
 20
1.968664
 42
0.270661
  0
SOLID
  5
FF
100
AcDbEntity
 67
     1
  8
BORDER
100
AcDbTrace
 10
14.72525
 20
1.975351
 30
0.34938
 11
14.712073
 21
1.959596
 31
0.34938
 12
14.751605
 22
1.973235
 32
0.34938
 13
14.753017
 23
1.951365
 33
0.34938
  0
LWPOLYLINE
  5
100
100
AcDbEntity
 67
     1
  8
BORDER
100
AcDbPolyline
 90
        7
 70
     0
 43
0.0
 38
0.34938
 10
14.501472
 20
1.956771
 42
0.001957
 10
14.579637
 20
1.940847
 42
-0.213696
 10
14.632798
 20
1.90369
 42
-0.207559
 10
14.64015
 20
1.847639
 42
-0.231198
 10
14.588441
 20
1.790241
 42
-0.176336
 10
14.480508
 20
1.78657
 42
-0.211591
 10
14.423116
 20
1.838151
  0
LWPOLYLINE
  5
109
100
AcDbEntity
 67
     1
  8
BORDER
100
AcDbPolyline
 90
        2
 70
     0
 43
0.005136
 38
0.34938
 10
14.685568
 20
2.030528
 42
0.398621
 10
14.719873
 20
1.9573
 42
0.398621
  0
SOLID
  5
10D
100
AcDbEntity
 67
     1
  8
BORDER
100
AcDbTrace
 10
14.71419
 20
2.039314
 30
0.34938
 11
14.701248
 21
2.053424
 31
0.34938
 12
14.698189
 22
2.022148
 32
0.34938
 13
14.683364
 23
2.028262
 33
0.34938
  0
SOLID
  5
10E
100
AcDbEntity
 67
     1
  8
BORDER
100
AcDbTrace
 10
14.698189
 20
2.022148
 30
0.34938
 11
14.683364
 21
2.028262
 31
0.34938
 12
14.700777
 22
1.994869
 32
0.34938
 13
14.685247
 23
1.98852
 33
0.34938
  0
SOLID
  5
10F
100
AcDbEntity
 67
     1
  8
BORDER
100
AcDbTrace
 10
14.700777
 20
1.994869
 30
0.34938
 11
14.685247
 21
1.98852
 31
0.34938
 12
14.72525
 22
1.975351
 32
0.34938
 13
14.712073
 23
1.959596
 33
0.34938
  0
LWPOLYLINE
  5
110
100
AcDbEntity
 67
     1
  8
BORDER
100
AcDbPolyline
 90
        2
 70
     0
 43
0.005136
 38
0.34938
 10
14.72266
 20
2.061556
 42
0.284121
 10
14.685568
 20
2.030528
 42
0.288845
  0
SOLID
  5
114
100
AcDbEntity
 67
     1
  8
BORDER
100
AcDbTrace
 10
14.71419
 20
2.039314
 30
0.34938
 11
14.701248
 21
2.053424
 31
0.34938
 12
14.71961
 22
2.040702
 32
0.34938
 13
14.71794
 23
2.062929
 33
0.34938
  0
SOLID
  5
115
100
AcDbEntity
 67
     1
  8
BORDER
100
AcDbTrace
 10
14.71961
 20
2.040702
 30
0.34938
 11
14.71794
 21
2.062929
 31
0.34938
 12
14.723135
 22
2.039092
 32
0.34938
 13
14.723135
 23
2.064211
 33
0.34938
  0
LWPOLYLINE
  5
116
100
AcDbEntity
 67
     1
  8
BORDER
100
AcDbPolyline
 90
        2
 70
     0
 43
0.005136
 38
0.34938
 10
14.792793
 20
1.968664
 42
0.179001
 10
14.811724
 20
2.00073
 42
0.179001
  0
LWPOLYLINE
  5
11A
100
AcDbEntity
 67
     1
  8
BORDER
100
AcDbPolyline
 90
        2
 70
     0
 43
0.005136
 38
0.34938
 10
14.811724
 20
2.00073
 42
0.152191
 10
14.80725
 20
2.036917
 42
0.152191
  0
SOLID
  5
11E
100
AcDbEntity
 67
     1
  8
BORDER
100
AcDbTrace
 10
14.751605
 20
1.973235
 30
0.34938
 11
14.753017
 21
1.951365
 31
0.34938
 12
14.785754
 22
1.984096
 32
0.34938
 13
14.795374
 23
1.968247
 33
0.34938
  0
SOLID
  5
11F
100
AcDbEntity
 67
     1
  8
BORDER
100
AcDbTrace
 10
14.785754
 20
1.984096
 30
0.34938
 11
14.795374
 21
1.968247
 31
0.34938
 12
14.796934
 22
2.009297
 32
0.34938
 13
14.813573
 23
2.000984
 33
0.34938
  0
SOLID
  5
120
100
AcDbEntity
 67
     1
  8
BORDER
100
AcDbTrace
 10
14.796934
 20
2.009297
 30
0.34938
 11
14.813573
 21
2.000984
 31
0.34938
 12
14.790174
 22
2.031641
 32
0.34938
 13
14.806033
 23
2.042294
 33
0.34938
  0
SOLID
  5
121
100
AcDbEntity
 67
     1
  8
BORDER
100
AcDbTrace
 10
14.790174
 20
2.031641
 30
0.34938
 11
14.806033
 21
2.042294
 31
0.34938
 12
14.774051
 22
2.041139
 32
0.34938
 13
14.776781
 23
2.064718
 33
0.34938
  0
LWPOLYLINE
  5
122
100
AcDbEntity
 67
     1
  8
BORDER
100
AcDbPolyline
 90
        2
 70
     0
 43
0.005136
 38
0.34938
 10
14.80725
 20
2.036917
 42
0.261966
 10
14.770878
 20
2.063621
 42
0.265647
  0
SOLID
  5
126
100
AcDbEntity
 67
     1
  8
BORDER
100
AcDbTrace
 10
14.774051
 20
2.041139
 30
0.34938
 11
14.776781
 21
2.064718
 31
0.34938
 12
14.770523
 22
2.040275
 32
0.34938
 13
14.770523
 23
2.066246
 33
0.34938
  0
LINE
  5
127
100
AcDbEntity
 67
     1
  8
BORDER
100
AcDbLine
 10
9.516875
 20
11.72763
 30
0.11646
 11
16.120819
 21
11.72763
 31
0.11646
  0
LINE
  5
128
100
AcDbEntity
 67
     1
  8
BORDER
100
AcDbLine
 10
16.120819
 20
11.51913
 30
0.11646
 11
16.120819
 21
11.72763
 31
0.11646
  0
VIEWPORT
  5
129
100
AcDbEntity
 67
     1
  8
VIEW-BORDER
100
AcDbViewport
 10
8.136188
 20
5.916481
 30
0.0
 40
15.775439
 41
11.487033
 68
     2
 69
     2
1001
ACAD
1000
MVIEW
1002
{
1070
    16
1010
0.0
1020
0.0
1030
0.0
1010
0.0
1020
0.0
1030
1.0
1040
0.0
1040
9.43517
1040
9.895573
1040
11.788147
1040
50.0
1040
0.0
1040
0.0
1070
     0
1070
   100
1070
     0
1070
     1
1070
     0
1070
     0
1070
     0
1070
     0
1040
0.0
1040
0.0
1040
0.0
1040
0.005
1040
0.005
1040
0.25
1040
0.25
1070
     0
1002
{
1002
}
1002
}
  0
TEXT
  5
151
100
AcDbEntity
 67
     1
  8
BORDER
100
AcDbText
 10
13.567577
 20
0.449042
 30
0.0
 40
0.08
  1
A
100
AcDbText
  0
TEXT
  5
66F
100
AcDbEntity
 67
     1
  8
BORDER
100
AcDbText
 10
13.929698
 20
0.144042
 30
0.0
 40
0.11
  1
PDA55
100
AcDbText
  0
TEXT
  5
674
100
AcDbEntity
 67
     1
  8
SHEET3
100
AcDbText
 10
14.256482
 20
0.449042
 30
0.0
 40
0.08
  1
3
100
AcDbText
  0
TEXT
  5
675
100
AcDbEntity
 67
     1
  8
SHEET1
100
AcDbText
 10
14.272557
 20
0.449042
 30
0.0
 40
0.08
  1
1
100
AcDbText
  0
TEXT
  5
2608
100
AcDbEntity
 67
     1
  8
SHEET1
100
AcDbText
 10
14.98644
 20
0.820744
 30
0.0
 40
0.08
  1
MECHANICAL
100
AcDbText
  0
TEXT
  5
2609
100
AcDbEntity
 67
     1
  8
SHEET1
100
AcDbText
 10
14.98644
 20
0.942115
 30
0.0
 40
0.08
  1
WEB
100
AcDbText
  0
TEXT
  5
260A
100
AcDbEntity
 67
     1
  8
SHEET1
100
AcDbText
 10
14.98644
 20
0.691786
 30
0.0
 40
0.08
  1
DRAWING
100
AcDbText
  0
INSERT
  5
2612
100
AcDbEntity
 67
     1
  8
0
100
AcDbBlockReference
  2
COPYRIGHT99
 10
0.247163
 20
11.290792
 30
0.0
 41
0.75
 42
0.75
 43
0.75
  0
LINE
  5
261B
100
AcDbEntity
 67
     1
  8
D1
100
AcDbLine
 10
9.627539
 20
0.171149
 30
0.0
 11
5.146123
 21
0.171149
 31
0.0
  0
LINE
  5
261C
100
AcDbEntity
 67
     1
  8
D1
100
AcDbLine
 10
5.217398
 20
0.215654
 30
0.0
 11
9.556264
 21
0.215654
 31
0.0
  0
TEXT
  5
261D
100
AcDbEntity
 67
     1
  8
D1
100
AcDbText
 10
5.290692
 20
0.250816
 30
0.0
 40
0.1125
  1
INFORMATION ONLY, NOT FOR MANUFACTURING
100
AcDbText
  0
ENDSEC
  0
SECTION
  2
OBJECTS
  0
DICTIONARY
  5
C
100
AcDbDictionary
  3
ACAD_GROUP
350
D
  3
ACAD_MLINESTYLE
350
E
  3
CONTENTDICTIONARY
350
2605
  0
DICTIONARY
  5
D
102
{ACAD_REACTORS
330
C
102
}
100
AcDbDictionary
  0
DICTIONARY
  5
E
102
{ACAD_REACTORS
330
C
102
}
100
AcDbDictionary
  3
STANDARD
350
1B
  0
DICTIONARY
  5
2605
102
{ACAD_REACTORS
330
C
102
}
100
AcDbDictionary
  0
MLINESTYLE
  5
1B
102
{ACAD_REACTORS
330
E
102
}
100
AcDbMlineStyle
  2
STANDARD
 70
     0
  3

 62
     0
 51
90.0
 52
90.0
 71
     2
 49
0.5
 62
   256
  6
BYLAYER
 49
-0.5
 62
   256
  6
BYLAYER
  0
ENDSEC
  0
EOF
