ISO-10303-21;
HEADER;
FILE_DESCRIPTION (( 'STEP AP203' ),
    '1' );
FILE_NAME ('Web Model 20219_20219.step',
    '2022-03-03T14:30:07',
    ( '' ),
    ( '' ),
    'SwSTEP 2.0',
    'SolidWorks 2021',
    '' );
FILE_SCHEMA (( 'CONFIG_CONTROL_DESIGN' ));
ENDSEC;

DATA;
#1 = ORIENTED_EDGE ( 'NONE', *, *, #211, .T. ) ;
#2 = EDGE_LOOP ( 'NONE', ( #1, #20, #185, #152 ) ) ;
#3 = DIRECTION ( 'NONE',  ( -9.251858538542971581E-17, -1.000000000000000000, 0.000000000000000000 ) ) ;
#4 = ORIENTED_EDGE ( 'NONE', *, *, #169, .T. ) ;
#5 = EDGE_CURVE ( 'NONE', #190, #167, #188, .T. ) ;
#6 = CC_DESIGN_PERSON_AND_ORGANIZATION_ASSIGNMENT ( #14, #229, ( #219 ) ) ;
#7 = UNCERTAINTY_MEASURE_WITH_UNIT (LENGTH_MEASURE( 1.000000000000000082E-05 ), #9, 'distance_accuracy_value', 'NONE');
#8 = LINE ( 'NONE', #139, #82 ) ;
#9 =( LENGTH_UNIT ( ) NAMED_UNIT ( * ) SI_UNIT ( .MILLI., .METRE. ) );
#10 = DIRECTION ( 'NONE',  ( -1.000000000000000000, 0.000000000000000000, 0.000000000000000000 ) ) ;
#11 = CC_DESIGN_APPROVAL ( #15, ( #73 ) ) ;
#12 = PLANE ( 'NONE',  #128 ) ;
#13 = DIRECTION ( 'NONE',  ( -0.000000000000000000, -0.000000000000000000, -1.000000000000000000 ) ) ;
#14 = PERSON_AND_ORGANIZATION ( #179, #155 ) ;
#15 = APPROVAL ( #104, 'UNSPECIFIED' ) ;
#16 = COORDINATED_UNIVERSAL_TIME_OFFSET ( 5, 0, .BEHIND. ) ;
#17 = PRODUCT ( 'Web Model 20219_20219', 'Web Model 20219_20219', '', ( #66 ) ) ;
#18 = PERSON_AND_ORGANIZATION ( #179, #155 ) ;
#19 = ORIENTED_EDGE ( 'NONE', *, *, #118, .F. ) ;
#20 = ORIENTED_EDGE ( 'NONE', *, *, #5, .T. ) ;
#21 = AXIS2_PLACEMENT_3D ( 'NONE', #162, #85, #51 ) ;
#22 = ORIENTED_EDGE ( 'NONE', *, *, #223, .T. ) ;
#23 = LINE ( 'NONE', #170, #120 ) ;
#24 = EDGE_CURVE ( 'NONE', #78, #75, #58, .T. ) ;
#25 = ORIENTED_EDGE ( 'NONE', *, *, #200, .F. ) ;
#26 = DIRECTION ( 'NONE',  ( 0.000000000000000000, -0.000000000000000000, 1.000000000000000000 ) ) ;
#27 = CARTESIAN_POINT ( 'NONE',  ( 74.99999999999998579, -74.99999999999998579, 0.1270000000000000018 ) ) ;
#28 = DIRECTION ( 'NONE',  ( -0.000000000000000000, -0.000000000000000000, -1.000000000000000000 ) ) ;
#29 = CC_DESIGN_SECURITY_CLASSIFICATION ( #219, ( #67 ) ) ;
#30 = VECTOR ( 'NONE', #193, 1000.000000000000000 ) ;
#31 = CALENDAR_DATE ( 2022, 3, 3 ) ;
#32 = APPROVAL ( #65, 'UNSPECIFIED' ) ;
#33 = SECURITY_CLASSIFICATION_LEVEL ( 'unclassified' ) ;
#34 = VECTOR ( 'NONE', #84, 1000.000000000000000 ) ;
#35 = DATE_TIME_ROLE ( 'creation_date' ) ;
#36 = COORDINATED_UNIVERSAL_TIME_OFFSET ( 5, 0, .BEHIND. ) ;
#37 = VERTEX_POINT ( 'NONE', #115 ) ;
#38 = ORIENTED_EDGE ( 'NONE', *, *, #200, .T. ) ;
#39 = CC_DESIGN_PERSON_AND_ORGANIZATION_ASSIGNMENT ( #86, #180, ( #67 ) ) ;
#40 = CC_DESIGN_APPROVAL ( #32, ( #219 ) ) ;
#41 = ORIENTED_EDGE ( 'NONE', *, *, #24, .F. ) ;
#42 = VERTEX_POINT ( 'NONE', #59 ) ;
#43 = CARTESIAN_POINT ( 'NONE',  ( 0.000000000000000000, 0.000000000000000000, 0.000000000000000000 ) ) ;
#44 = CARTESIAN_POINT ( 'NONE',  ( -75.00000000000002842, -74.99999999999998579, 0.1270000000000000018 ) ) ;
#45 = DIRECTION ( 'NONE',  ( -0.000000000000000000, -0.000000000000000000, -1.000000000000000000 ) ) ;
#46 = CARTESIAN_POINT ( 'NONE',  ( 74.99999999999998579, 75.00000000000001421, 0.000000000000000000 ) ) ;
#47 = APPROVAL_STATUS ( 'not_yet_approved' ) ;
#48 = CC_DESIGN_PERSON_AND_ORGANIZATION_ASSIGNMENT ( #196, #143, ( #67 ) ) ;
#49 = COORDINATED_UNIVERSAL_TIME_OFFSET ( 5, 0, .BEHIND. ) ;
#50 = MANIFOLD_SOLID_BREP ( 'Boss-Extrude1', #92 ) ;
#51 = DIRECTION ( 'NONE',  ( 1.000000000000000000, 0.000000000000000000, 0.000000000000000000 ) ) ;
#52 = APPROVAL_PERSON_ORGANIZATION ( #142, #15, #182 ) ;
#53 = DATE_TIME_ROLE ( 'classification_date' ) ;
#54 = EDGE_CURVE ( 'NONE', #167, #116, #23, .T. ) ;
#55 = CARTESIAN_POINT ( 'NONE',  ( -75.00000000000001421, 75.00000000000001421, 0.1270000000000000018 ) ) ;
#56 = ORIENTED_EDGE ( 'NONE', *, *, #24, .T. ) ;
#57 = APPROVAL_PERSON_ORGANIZATION ( #18, #148, #234 ) ;
#58 = LINE ( 'NONE', #133, #175 ) ;
#59 = CARTESIAN_POINT ( 'NONE',  ( 74.99999999999998579, -74.99999999999998579, 0.000000000000000000 ) ) ;
#60 = FACE_OUTER_BOUND ( 'NONE', #164, .T. ) ;
#61 = LINE ( 'NONE', #27, #134 ) ;
#62 = AXIS2_PLACEMENT_3D ( 'NONE', #98, #137, #119 ) ;
#63 = PLANE ( 'NONE',  #176 ) ;
#64 = CARTESIAN_POINT ( 'NONE',  ( 74.99999999999998579, 75.00000000000001421, 0.1270000000000000018 ) ) ;
#65 = APPROVAL_STATUS ( 'not_yet_approved' ) ;
#66 = MECHANICAL_CONTEXT ( 'NONE', #108, 'mechanical' ) ;
#67 = PRODUCT_DEFINITION_FORMATION_WITH_SPECIFIED_SOURCE ( 'ANY', '', #17, .NOT_KNOWN. ) ;
#68 = APPLICATION_PROTOCOL_DEFINITION ( 'international standard', 'config_control_design', 1994, #168 ) ;
#69 = VECTOR ( 'NONE', #174, 1000.000000000000000 ) ;
#70 = DESIGN_CONTEXT ( 'detailed design', #168, 'design' ) ;
#71 = PERSON_AND_ORGANIZATION ( #179, #155 ) ;
#72 = EDGE_CURVE ( 'NONE', #116, #237, #187, .T. ) ;
#73 = PRODUCT_DEFINITION ( 'UNKNOWN', '', #67, #70 ) ;
#74 = EDGE_LOOP ( 'NONE', ( #56, #112, #222, #96 ) ) ;
#75 = VERTEX_POINT ( 'NONE', #166 ) ;
#76 = ORIENTED_EDGE ( 'NONE', *, *, #211, .F. ) ;
#77 = DIRECTION ( 'NONE',  ( -0.000000000000000000, -0.000000000000000000, -1.000000000000000000 ) ) ;
#78 = VERTEX_POINT ( 'NONE', #205 ) ;
#79 = PLANE ( 'NONE',  #197 ) ;
#80 = CC_DESIGN_DATE_AND_TIME_ASSIGNMENT ( #236, #35, ( #73 ) ) ;
#81 = CARTESIAN_POINT ( 'NONE',  ( -75.00000000000002842, -74.99999999999998579, 0.1270000000000000018 ) ) ;
#82 = VECTOR ( 'NONE', #45, 1000.000000000000000 ) ;
#83 = CARTESIAN_POINT ( 'NONE',  ( -75.00000000000002842, -74.99999999999998579, 0.000000000000000000 ) ) ;
#84 = DIRECTION ( 'NONE',  ( -0.000000000000000000, 1.000000000000000000, -0.000000000000000000 ) ) ;
#85 = DIRECTION ( 'NONE',  ( 0.000000000000000000, 0.000000000000000000, 1.000000000000000000 ) ) ;
#86 = PERSON_AND_ORGANIZATION ( #179, #155 ) ;
#87 = ADVANCED_BREP_SHAPE_REPRESENTATION ( 'Web Model 20219_20219', ( #50, #21 ), #93 ) ;
#88 = PERSON_AND_ORGANIZATION ( #179, #155 ) ;
#89 = ADVANCED_FACE ( 'NONE', ( #60 ), #97, .F. ) ;
#90 = ORIENTED_EDGE ( 'NONE', *, *, #118, .T. ) ;
#91 = EDGE_LOOP ( 'NONE', ( #218, #25, #113, #220 ) ) ;
#92 = CLOSED_SHELL ( 'NONE', ( #232, #106, #208, #165, #130, #89 ) ) ;
#93 =( GEOMETRIC_REPRESENTATION_CONTEXT ( 3 ) GLOBAL_UNCERTAINTY_ASSIGNED_CONTEXT ( ( #7 ) ) GLOBAL_UNIT_ASSIGNED_CONTEXT ( ( #9, #154, #102 ) ) REPRESENTATION_CONTEXT ( 'NONE', 'WORKASPACE' ) );
#94 = EDGE_LOOP ( 'NONE', ( #22, #216, #76, #38 ) ) ;
#95 = VECTOR ( 'NONE', #77, 1000.000000000000000 ) ;
#96 = ORIENTED_EDGE ( 'NONE', *, *, #159, .T. ) ;
#97 = PLANE ( 'NONE',  #138 ) ;
#98 = CARTESIAN_POINT ( 'NONE',  ( -75.00000000000001421, 75.00000000000001421, 0.1270000000000000018 ) ) ;
#99 = CC_DESIGN_PERSON_AND_ORGANIZATION_ASSIGNMENT ( #88, #215, ( #73 ) ) ;
#100 = CARTESIAN_POINT ( 'NONE',  ( 74.99999999999998579, 75.00000000000001421, 0.1270000000000000018 ) ) ;
#101 = APPROVAL_PERSON_ORGANIZATION ( #71, #32, #213 ) ;
#102 =( NAMED_UNIT ( * ) SI_UNIT ( $, .STERADIAN. ) SOLID_ANGLE_UNIT ( ) );
#103 = VECTOR ( 'NONE', #28, 1000.000000000000000 ) ;
#104 = APPROVAL_STATUS ( 'not_yet_approved' ) ;
#105 = DATE_AND_TIME ( #214, #110 ) ;
#106 = ADVANCED_FACE ( 'NONE', ( #111 ), #217, .F. ) ;
#107 = APPROVAL_DATE_TIME ( #199, #148 ) ;
#108 = APPLICATION_CONTEXT ( 'configuration controlled 3d designs of mechanical parts and assemblies' ) ;
#109 = SHAPE_DEFINITION_REPRESENTATION ( #230, #87 ) ;
#110 = LOCAL_TIME ( 9, 30, 7.000000000000000000, #145 ) ;
#111 = FACE_OUTER_BOUND ( 'NONE', #74, .T. ) ;
#112 = ORIENTED_EDGE ( 'NONE', *, *, #169, .F. ) ;
#113 = ORIENTED_EDGE ( 'NONE', *, *, #194, .F. ) ;
#114 = LOCAL_TIME ( 9, 30, 7.000000000000000000, #36 ) ;
#115 = CARTESIAN_POINT ( 'NONE',  ( 74.99999999999998579, -74.99999999999998579, 0.1270000000000000018 ) ) ;
#116 = VERTEX_POINT ( 'NONE', #81 ) ;
#117 = FACE_OUTER_BOUND ( 'NONE', #2, .T. ) ;
#118 = EDGE_CURVE ( 'NONE', #75, #237, #156, .T. ) ;
#119 = DIRECTION ( 'NONE',  ( 9.251858538542971581E-17, 1.000000000000000000, 0.000000000000000000 ) ) ;
#120 = VECTOR ( 'NONE', #3, 1000.000000000000000 ) ;
#121 = LINE ( 'NONE', #46, #34 ) ;
#122 = CARTESIAN_POINT ( 'NONE',  ( -75.00000000000001421, 75.00000000000001421, 0.000000000000000000 ) ) ;
#123 = LINE ( 'NONE', #212, #30 ) ;
#124 = CALENDAR_DATE ( 2022, 3, 3 ) ;
#125 = DATE_AND_TIME ( #124, #144 ) ;
#126 = CC_DESIGN_PERSON_AND_ORGANIZATION_ASSIGNMENT ( #163, #127, ( #17 ) ) ;
#127 = PERSON_AND_ORGANIZATION_ROLE ( 'design_owner' ) ;
#128 = AXIS2_PLACEMENT_3D ( 'NONE', #100, #10, #226 ) ;
#129 = CALENDAR_DATE ( 2022, 3, 3 ) ;
#130 = ADVANCED_FACE ( 'NONE', ( #117 ), #63, .T. ) ;
#131 = DIRECTION ( 'NONE',  ( 0.000000000000000000, -1.000000000000000000, 0.000000000000000000 ) ) ;
#132 = CARTESIAN_POINT ( 'NONE',  ( -75.00000000000001421, 75.00000000000001421, 0.1270000000000000018 ) ) ;
#133 = CARTESIAN_POINT ( 'NONE',  ( -75.00000000000001421, 75.00000000000001421, 0.000000000000000000 ) ) ;
#134 = VECTOR ( 'NONE', #13, 1000.000000000000000 ) ;
#135 = ORIENTED_EDGE ( 'NONE', *, *, #223, .F. ) ;
#136 = DIRECTION ( 'NONE',  ( 1.000000000000000000, 0.000000000000000000, 0.000000000000000000 ) ) ;
#137 = DIRECTION ( 'NONE',  ( 1.000000000000000000, -9.251858538542971581E-17, 0.000000000000000000 ) ) ;
#138 = AXIS2_PLACEMENT_3D ( 'NONE', #43, #171, #136 ) ;
#139 = CARTESIAN_POINT ( 'NONE',  ( 74.99999999999998579, 75.00000000000001421, 0.1270000000000000018 ) ) ;
#140 = CARTESIAN_POINT ( 'NONE',  ( -75.00000000000001421, 75.00000000000001421, 0.1270000000000000018 ) ) ;
#141 = CARTESIAN_POINT ( 'NONE',  ( -75.00000000000002842, -74.99999999999998579, 0.000000000000000000 ) ) ;
#142 = PERSON_AND_ORGANIZATION ( #179, #155 ) ;
#143 = PERSON_AND_ORGANIZATION_ROLE ( 'design_supplier' ) ;
#144 = LOCAL_TIME ( 9, 30, 7.000000000000000000, #49 ) ;
#145 = COORDINATED_UNIVERSAL_TIME_OFFSET ( 5, 0, .BEHIND. ) ;
#146 = LOCAL_TIME ( 9, 30, 7.000000000000000000, #16 ) ;
#147 = CARTESIAN_POINT ( 'NONE',  ( -75.00000000000002842, -74.99999999999998579, 0.1270000000000000018 ) ) ;
#148 = APPROVAL ( #47, 'UNSPECIFIED' ) ;
#149 = EDGE_LOOP ( 'NONE', ( #90, #191, #221, #4 ) ) ;
#150 = DIRECTION ( 'NONE',  ( -1.000000000000000000, -0.000000000000000000, -0.000000000000000000 ) ) ;
#151 = ORIENTED_EDGE ( 'NONE', *, *, #186, .F. ) ;
#152 = ORIENTED_EDGE ( 'NONE', *, *, #194, .T. ) ;
#153 = LINE ( 'NONE', #141, #235 ) ;
#154 =( NAMED_UNIT ( * ) PLANE_ANGLE_UNIT ( ) SI_UNIT ( $, .RADIAN. ) );
#155 = ORGANIZATION ( 'UNSPECIFIED', 'UNSPECIFIED', '' ) ;
#156 = LINE ( 'NONE', #122, #69 ) ;
#157 = APPLICATION_PROTOCOL_DEFINITION ( 'international standard', 'config_control_design', 1994, #108 ) ;
#158 = DIRECTION ( 'NONE',  ( 1.000000000000000000, 0.000000000000000000, 0.000000000000000000 ) ) ;
#159 = EDGE_CURVE ( 'NONE', #190, #78, #8, .T. ) ;
#160 = PRODUCT_RELATED_PRODUCT_CATEGORY ( 'detail', '', ( #17 ) ) ;
#161 = CALENDAR_DATE ( 2022, 3, 3 ) ;
#162 = CARTESIAN_POINT ( 'NONE',  ( 0.000000000000000000, 0.000000000000000000, 0.000000000000000000 ) ) ;
#163 = PERSON_AND_ORGANIZATION ( #179, #155 ) ;
#164 = EDGE_LOOP ( 'NONE', ( #135, #151, #19, #41 ) ) ;
#165 = ADVANCED_FACE ( 'NONE', ( #178 ), #79, .F. ) ;
#166 = CARTESIAN_POINT ( 'NONE',  ( -75.00000000000001421, 75.00000000000001421, 0.000000000000000000 ) ) ;
#167 = VERTEX_POINT ( 'NONE', #206 ) ;
#168 = APPLICATION_CONTEXT ( 'configuration controlled 3d designs of mechanical parts and assemblies' ) ;
#169 = EDGE_CURVE ( 'NONE', #167, #75, #195, .T. ) ;
#170 = CARTESIAN_POINT ( 'NONE',  ( -75.00000000000001421, 75.00000000000001421, 0.1270000000000000018 ) ) ;
#171 = DIRECTION ( 'NONE',  ( -0.000000000000000000, 0.000000000000000000, 1.000000000000000000 ) ) ;
#172 = DIRECTION ( 'NONE',  ( -0.000000000000000000, 0.000000000000000000, 1.000000000000000000 ) ) ;
#173 = PLANE ( 'NONE',  #62 ) ;
#174 = DIRECTION ( 'NONE',  ( -9.251858538542971581E-17, -1.000000000000000000, 0.000000000000000000 ) ) ;
#175 = VECTOR ( 'NONE', #203, 1000.000000000000000 ) ;
#176 = AXIS2_PLACEMENT_3D ( 'NONE', #192, #172, #158 ) ;
#177 = CARTESIAN_POINT ( 'NONE',  ( -75.00000000000002842, -74.99999999999998579, 0.1270000000000000018 ) ) ;
#178 = FACE_OUTER_BOUND ( 'NONE', #91, .T. ) ;
#179 = PERSON ( 'UNSPECIFIED', 'UNSPECIFIED', 'UNSPECIFIED', ('UNSPECIFIED'), ('UNSPECIFIED'), ('UNSPECIFIED') ) ;
#180 = PERSON_AND_ORGANIZATION_ROLE ( 'creator' ) ;
#181 = APPROVAL_DATE_TIME ( #125, #32 ) ;
#182 = APPROVAL_ROLE ( '' ) ;
#183 = LOCAL_TIME ( 9, 30, 7.000000000000000000, #184 ) ;
#184 = COORDINATED_UNIVERSAL_TIME_OFFSET ( 5, 0, .BEHIND. ) ;
#185 = ORIENTED_EDGE ( 'NONE', *, *, #54, .T. ) ;
#186 = EDGE_CURVE ( 'NONE', #237, #42, #153, .T. ) ;
#187 = LINE ( 'NONE', #147, #95 ) ;
#188 = LINE ( 'NONE', #132, #225 ) ;
#189 = VECTOR ( 'NONE', #207, 1000.000000000000000 ) ;
#190 = VERTEX_POINT ( 'NONE', #64 ) ;
#191 = ORIENTED_EDGE ( 'NONE', *, *, #72, .F. ) ;
#192 = CARTESIAN_POINT ( 'NONE',  ( 0.000000000000000000, 0.000000000000000000, 0.1270000000000000018 ) ) ;
#193 = DIRECTION ( 'NONE',  ( -0.000000000000000000, 1.000000000000000000, -0.000000000000000000 ) ) ;
#194 = EDGE_CURVE ( 'NONE', #116, #37, #209, .T. ) ;
#195 = LINE ( 'NONE', #140, #103 ) ;
#196 = PERSON_AND_ORGANIZATION ( #179, #155 ) ;
#197 = AXIS2_PLACEMENT_3D ( 'NONE', #177, #227, #26 ) ;
#198 = APPROVAL_DATE_TIME ( #231, #15 ) ;
#199 = DATE_AND_TIME ( #31, #183 ) ;
#200 = EDGE_CURVE ( 'NONE', #37, #42, #61, .T. ) ;
#201 = CC_DESIGN_DATE_AND_TIME_ASSIGNMENT ( #105, #53, ( #219 ) ) ;
#202 = DIRECTION ( 'NONE',  ( 0.000000000000000000, -0.000000000000000000, -1.000000000000000000 ) ) ;
#203 = DIRECTION ( 'NONE',  ( -1.000000000000000000, -0.000000000000000000, -0.000000000000000000 ) ) ;
#204 = AXIS2_PLACEMENT_3D ( 'NONE', #55, #131, #202 ) ;
#205 = CARTESIAN_POINT ( 'NONE',  ( 74.99999999999998579, 75.00000000000001421, 0.000000000000000000 ) ) ;
#206 = CARTESIAN_POINT ( 'NONE',  ( -75.00000000000001421, 75.00000000000001421, 0.1270000000000000018 ) ) ;
#207 = DIRECTION ( 'NONE',  ( 1.000000000000000000, 0.000000000000000000, 0.000000000000000000 ) ) ;
#208 = ADVANCED_FACE ( 'NONE', ( #210 ), #173, .F. ) ;
#209 = LINE ( 'NONE', #44, #189 ) ;
#210 = FACE_OUTER_BOUND ( 'NONE', #149, .T. ) ;
#211 = EDGE_CURVE ( 'NONE', #37, #190, #123, .T. ) ;
#212 = CARTESIAN_POINT ( 'NONE',  ( 74.99999999999998579, 75.00000000000001421, 0.1270000000000000018 ) ) ;
#213 = APPROVAL_ROLE ( '' ) ;
#214 = CALENDAR_DATE ( 2022, 3, 3 ) ;
#215 = PERSON_AND_ORGANIZATION_ROLE ( 'creator' ) ;
#216 = ORIENTED_EDGE ( 'NONE', *, *, #159, .F. ) ;
#217 = PLANE ( 'NONE',  #204 ) ;
#218 = ORIENTED_EDGE ( 'NONE', *, *, #186, .T. ) ;
#219 = SECURITY_CLASSIFICATION ( '', '', #33 ) ;
#220 = ORIENTED_EDGE ( 'NONE', *, *, #72, .T. ) ;
#221 = ORIENTED_EDGE ( 'NONE', *, *, #54, .F. ) ;
#222 = ORIENTED_EDGE ( 'NONE', *, *, #5, .F. ) ;
#223 = EDGE_CURVE ( 'NONE', #42, #78, #121, .T. ) ;
#224 = DIRECTION ( 'NONE',  ( 1.000000000000000000, 0.000000000000000000, 0.000000000000000000 ) ) ;
#225 = VECTOR ( 'NONE', #150, 1000.000000000000000 ) ;
#226 = DIRECTION ( 'NONE',  ( 0.000000000000000000, 0.000000000000000000, 1.000000000000000000 ) ) ;
#227 = DIRECTION ( 'NONE',  ( 0.000000000000000000, 1.000000000000000000, 0.000000000000000000 ) ) ;
#228 = FACE_OUTER_BOUND ( 'NONE', #94, .T. ) ;
#229 = PERSON_AND_ORGANIZATION_ROLE ( 'classification_officer' ) ;
#230 = PRODUCT_DEFINITION_SHAPE ( 'NONE', 'NONE',  #73 ) ;
#231 = DATE_AND_TIME ( #129, #114 ) ;
#232 = ADVANCED_FACE ( 'NONE', ( #228 ), #12, .F. ) ;
#233 = CC_DESIGN_APPROVAL ( #148, ( #67 ) ) ;
#234 = APPROVAL_ROLE ( '' ) ;
#235 = VECTOR ( 'NONE', #224, 1000.000000000000000 ) ;
#236 = DATE_AND_TIME ( #161, #146 ) ;
#237 = VERTEX_POINT ( 'NONE', #83 ) ;
ENDSEC;
END-ISO-10303-21;
