ISO-10303-21;
HEADER;
FILE_DESCRIPTION (( 'STEP AP203' ),
    '1' );
FILE_NAME ('Web Model 63207_63207.step',
    '2020-10-07T17:35:13',
    ( '' ),
    ( '' ),
    'SwSTEP 2.0',
    'SolidWorks 2018',
    '' );
FILE_SCHEMA (( 'CONFIG_CONTROL_DESIGN' ));
ENDSEC;

DATA;
#1 = VERTEX_POINT ( 'NONE', #153 ) ;
#2 = CC_DESIGN_DATE_AND_TIME_ASSIGNMENT ( #75, #98, ( #50 ) ) ;
#3 = AXIS2_PLACEMENT_3D ( 'NONE', #66, #110, #84 ) ;
#4 = SHAPE_DEFINITION_REPRESENTATION ( #99, #70 ) ;
#5 = DIRECTION ( 'NONE',  ( 1.000000000000000000, 0.0000000000000000000, -0.0000000000000000000 ) ) ;
#6 = ADVANCED_FACE ( 'NONE', ( #58 ), #136, .T. ) ;
#7 = CARTESIAN_POINT ( 'NONE',  ( 10.00000000000000000, 1.224646799147353256E-15, 2.000000000000000000 ) ) ;
#8 = DIRECTION ( 'NONE',  ( 1.000000000000000000, 0.0000000000000000000, 0.0000000000000000000 ) ) ;
#9 = DIRECTION ( 'NONE',  ( -0.0000000000000000000, -0.0000000000000000000, -1.000000000000000000 ) ) ;
#10 = COORDINATED_UNIVERSAL_TIME_OFFSET ( 5, 0, .BEHIND. ) ;
#11 = AXIS2_PLACEMENT_3D ( 'NONE', #118, #65, #116 ) ;
#12 = APPROVAL_ROLE ( '' ) ;
#13 = FACE_OUTER_BOUND ( 'NONE', #140, .T. ) ;
#14 = CC_DESIGN_PERSON_AND_ORGANIZATION_ASSIGNMENT ( #120, #71, ( #27 ) ) ;
#15 = APPROVAL_DATE_TIME ( #34, #113 ) ;
#16 = PERSON_AND_ORGANIZATION ( #163, #125 ) ;
#17 = VERTEX_POINT ( 'NONE', #7 ) ;
#18 = UNCERTAINTY_MEASURE_WITH_UNIT (LENGTH_MEASURE( 1.000000000000000082E-05 ), #46, 'distance_accuracy_value', 'NONE');
#19 = CC_DESIGN_SECURITY_CLASSIFICATION ( #50, ( #27 ) ) ;
#20 = FACE_OUTER_BOUND ( 'NONE', #74, .T. ) ;
#21 = AXIS2_PLACEMENT_3D ( 'NONE', #42, #54, #87 ) ;
#22 = COORDINATED_UNIVERSAL_TIME_OFFSET ( 5, 0, .BEHIND. ) ;
#23 = VERTEX_POINT ( 'NONE', #67 ) ;
#24 = FACE_OUTER_BOUND ( 'NONE', #138, .T. ) ;
#25 = CARTESIAN_POINT ( 'NONE',  ( 0.0000000000000000000, 0.0000000000000000000, 0.0000000000000000000 ) ) ;
#26 = CARTESIAN_POINT ( 'NONE',  ( -10.00000000000000000, 0.0000000000000000000, 2.000000000000000000 ) ) ;
#27 = PRODUCT_DEFINITION_FORMATION_WITH_SPECIFIED_SOURCE ( 'ANY', '', #102, .NOT_KNOWN. ) ;
#28 = DIRECTION ( 'NONE',  ( 0.0000000000000000000, 0.0000000000000000000, 1.000000000000000000 ) ) ;
#29 = PLANE ( 'NONE',  #157 ) ;
#30 = APPROVAL_ROLE ( '' ) ;
#31 = APPROVAL_PERSON_ORGANIZATION ( #143, #41, #12 ) ;
#32 = APPROVAL_STATUS ( 'not_yet_approved' ) ;
#33 =( NAMED_UNIT ( * ) PLANE_ANGLE_UNIT ( ) SI_UNIT ( $, .RADIAN. ) );
#34 = DATE_AND_TIME ( #56, #170 ) ;
#35 = CC_DESIGN_PERSON_AND_ORGANIZATION_ASSIGNMENT ( #160, #86, ( #167 ) ) ;
#36 = AXIS2_PLACEMENT_3D ( 'NONE', #132, #107, #8 ) ;
#37 = CIRCLE ( 'NONE', #168, 10.00000000000000000 ) ;
#38 = ORIENTED_EDGE ( 'NONE', *, *, #90, .T. ) ;
#39 = VERTEX_POINT ( 'NONE', #171 ) ;
#40 = PLANE ( 'NONE',  #158 ) ;
#41 = APPROVAL ( #32, 'UNSPECIFIED' ) ;
#42 = CARTESIAN_POINT ( 'NONE',  ( 0.0000000000000000000, 0.0000000000000000000, 0.0000000000000000000 ) ) ;
#43 = DIRECTION ( 'NONE',  ( 1.000000000000000000, 0.0000000000000000000, -0.0000000000000000000 ) ) ;
#44 = ORIENTED_EDGE ( 'NONE', *, *, #147, .F. ) ;
#45 = APPROVAL ( #47, 'UNSPECIFIED' ) ;
#46 =( LENGTH_UNIT ( ) NAMED_UNIT ( * ) SI_UNIT ( .MILLI., .METRE. ) );
#47 = APPROVAL_STATUS ( 'not_yet_approved' ) ;
#48 = MECHANICAL_CONTEXT ( 'NONE', #161, 'mechanical' ) ;
#49 = LOCAL_TIME ( 13, 35, 13.00000000000000000, #10 ) ;
#50 = SECURITY_CLASSIFICATION ( '', '', #162 ) ;
#51 = DATE_AND_TIME ( #55, #129 ) ;
#52 = MANIFOLD_SOLID_BREP ( 'Extrude1', #146 ) ;
#53 = CARTESIAN_POINT ( 'NONE',  ( 0.0000000000000000000, 0.0000000000000000000, 2.000000000000000000 ) ) ;
#54 = DIRECTION ( 'NONE',  ( 0.0000000000000000000, 0.0000000000000000000, 1.000000000000000000 ) ) ;
#55 = CALENDAR_DATE ( 2020, 7, 10 ) ;
#56 = CALENDAR_DATE ( 2020, 7, 10 ) ;
#57 = DATE_AND_TIME ( #126, #94 ) ;
#58 = FACE_OUTER_BOUND ( 'NONE', #165, .T. ) ;
#59 = CC_DESIGN_APPROVAL ( #41, ( #167 ) ) ;
#60 = APPROVAL_PERSON_ORGANIZATION ( #16, #113, #121 ) ;
#61 = ORIENTED_EDGE ( 'NONE', *, *, #100, .F. ) ;
#62 = APPROVAL_PERSON_ORGANIZATION ( #68, #45, #30 ) ;
#63 = COORDINATED_UNIVERSAL_TIME_OFFSET ( 5, 0, .BEHIND. ) ;
#64 = CIRCLE ( 'NONE', #3, 10.00000000000000000 ) ;
#65 = DIRECTION ( 'NONE',  ( 0.0000000000000000000, 0.0000000000000000000, 1.000000000000000000 ) ) ;
#66 = CARTESIAN_POINT ( 'NONE',  ( 0.0000000000000000000, 0.0000000000000000000, 2.000000000000000000 ) ) ;
#67 = CARTESIAN_POINT ( 'NONE',  ( -10.00000000000000000, 0.0000000000000000000, 2.000000000000000000 ) ) ;
#68 = PERSON_AND_ORGANIZATION ( #163, #125 ) ;
#69 =( NAMED_UNIT ( * ) SI_UNIT ( $, .STERADIAN. ) SOLID_ANGLE_UNIT ( ) );
#70 = ADVANCED_BREP_SHAPE_REPRESENTATION ( 'Web Model 63207_63207', ( #52, #21 ), #152 ) ;
#71 = PERSON_AND_ORGANIZATION_ROLE ( 'design_supplier' ) ;
#72 = CC_DESIGN_PERSON_AND_ORGANIZATION_ASSIGNMENT ( #89, #88, ( #50 ) ) ;
#73 = EDGE_CURVE ( 'NONE', #23, #39, #124, .T. ) ;
#74 = EDGE_LOOP ( 'NONE', ( #173, #130 ) ) ;
#75 = DATE_AND_TIME ( #78, #49 ) ;
#76 = PERSON_AND_ORGANIZATION ( #163, #125 ) ;
#77 = ORIENTED_EDGE ( 'NONE', *, *, #73, .T. ) ;
#78 = CALENDAR_DATE ( 2020, 7, 10 ) ;
#79 = CYLINDRICAL_SURFACE ( 'NONE', #106, 10.00000000000000000 ) ;
#80 = ADVANCED_FACE ( 'NONE', ( #20 ), #40, .T. ) ;
#81 = CARTESIAN_POINT ( 'NONE',  ( 0.0000000000000000000, 0.0000000000000000000, 2.000000000000000000 ) ) ;
#82 = CARTESIAN_POINT ( 'NONE',  ( 0.0000000000000000000, 0.0000000000000000000, 2.000000000000000000 ) ) ;
#83 = CARTESIAN_POINT ( 'NONE',  ( 10.00000000000000000, 1.224646799147353256E-15, 2.000000000000000000 ) ) ;
#84 = DIRECTION ( 'NONE',  ( 1.000000000000000000, 0.0000000000000000000, 0.0000000000000000000 ) ) ;
#85 = ORIENTED_EDGE ( 'NONE', *, *, #90, .F. ) ;
#86 = PERSON_AND_ORGANIZATION_ROLE ( 'creator' ) ;
#87 = DIRECTION ( 'NONE',  ( 1.000000000000000000, 0.0000000000000000000, 0.0000000000000000000 ) ) ;
#88 = PERSON_AND_ORGANIZATION_ROLE ( 'classification_officer' ) ;
#89 = PERSON_AND_ORGANIZATION ( #163, #125 ) ;
#90 = EDGE_CURVE ( 'NONE', #17, #1, #114, .T. ) ;
#91 = DESIGN_CONTEXT ( 'detailed design', #174, 'design' ) ;
#92 = VECTOR ( 'NONE', #119, 1000.000000000000000 ) ;
#93 = CC_DESIGN_DATE_AND_TIME_ASSIGNMENT ( #57, #112, ( #167 ) ) ;
#94 = LOCAL_TIME ( 13, 35, 13.00000000000000000, #22 ) ;
#95 = ADVANCED_FACE ( 'NONE', ( #13 ), #79, .T. ) ;
#96 = DIRECTION ( 'NONE',  ( 0.0000000000000000000, 0.0000000000000000000, 1.000000000000000000 ) ) ;
#97 = DIRECTION ( 'NONE',  ( -1.000000000000000000, 0.0000000000000000000, 0.0000000000000000000 ) ) ;
#98 = DATE_TIME_ROLE ( 'classification_date' ) ;
#99 = PRODUCT_DEFINITION_SHAPE ( 'NONE', 'NONE',  #167 ) ;
#100 = EDGE_CURVE ( 'NONE', #17, #23, #144, .T. ) ;
#101 = CIRCLE ( 'NONE', #36, 10.00000000000000000 ) ;
#102 = PRODUCT ( 'Web Model 63207_63207', 'Web Model 63207_63207', '', ( #48 ) ) ;
#103 = CALENDAR_DATE ( 2020, 7, 10 ) ;
#104 = ORIENTED_EDGE ( 'NONE', *, *, #73, .F. ) ;
#105 = ORIENTED_EDGE ( 'NONE', *, *, #133, .F. ) ;
#106 = AXIS2_PLACEMENT_3D ( 'NONE', #81, #109, #97 ) ;
#107 = DIRECTION ( 'NONE',  ( 0.0000000000000000000, 0.0000000000000000000, 1.000000000000000000 ) ) ;
#108 = DATE_AND_TIME ( #103, #166 ) ;
#109 = DIRECTION ( 'NONE',  ( -0.0000000000000000000, -0.0000000000000000000, -1.000000000000000000 ) ) ;
#110 = DIRECTION ( 'NONE',  ( 0.0000000000000000000, 0.0000000000000000000, 1.000000000000000000 ) ) ;
#111 = APPROVAL_STATUS ( 'not_yet_approved' ) ;
#112 = DATE_TIME_ROLE ( 'creation_date' ) ;
#113 = APPROVAL ( #111, 'UNSPECIFIED' ) ;
#114 = LINE ( 'NONE', #83, #148 ) ;
#115 = EDGE_CURVE ( 'NONE', #1, #39, #101, .T. ) ;
#116 = DIRECTION ( 'NONE',  ( 1.000000000000000000, 0.0000000000000000000, 0.0000000000000000000 ) ) ;
#117 = CC_DESIGN_APPROVAL ( #45, ( #50 ) ) ;
#118 = CARTESIAN_POINT ( 'NONE',  ( 0.0000000000000000000, 0.0000000000000000000, 2.000000000000000000 ) ) ;
#119 = DIRECTION ( 'NONE',  ( -0.0000000000000000000, -0.0000000000000000000, -1.000000000000000000 ) ) ;
#120 = PERSON_AND_ORGANIZATION ( #163, #125 ) ;
#121 = APPROVAL_ROLE ( '' ) ;
#122 = APPLICATION_PROTOCOL_DEFINITION ( 'international standard', 'config_control_design', 1994, #161 ) ;
#123 = CC_DESIGN_PERSON_AND_ORGANIZATION_ASSIGNMENT ( #150, #145, ( #27 ) ) ;
#124 = LINE ( 'NONE', #26, #92 ) ;
#125 = ORGANIZATION ( 'UNSPECIFIED', 'UNSPECIFIED', '' ) ;
#126 = CALENDAR_DATE ( 2020, 7, 10 ) ;
#127 = ORIENTED_EDGE ( 'NONE', *, *, #115, .T. ) ;
#128 = CC_DESIGN_PERSON_AND_ORGANIZATION_ASSIGNMENT ( #76, #135, ( #102 ) ) ;
#129 = LOCAL_TIME ( 13, 35, 13.00000000000000000, #164 ) ;
#130 = ORIENTED_EDGE ( 'NONE', *, *, #100, .T. ) ;
#131 = DIRECTION ( 'NONE',  ( -1.000000000000000000, 0.0000000000000000000, 0.0000000000000000000 ) ) ;
#132 = CARTESIAN_POINT ( 'NONE',  ( 0.0000000000000000000, 0.0000000000000000000, 0.0000000000000000000 ) ) ;
#133 = EDGE_CURVE ( 'NONE', #23, #17, #64, .T. ) ;
#134 = DIRECTION ( 'NONE',  ( 1.000000000000000000, 0.0000000000000000000, 0.0000000000000000000 ) ) ;
#135 = PERSON_AND_ORGANIZATION_ROLE ( 'design_owner' ) ;
#136 = CYLINDRICAL_SURFACE ( 'NONE', #169, 10.00000000000000000 ) ;
#137 = ORIENTED_EDGE ( 'NONE', *, *, #147, .T. ) ;
#138 = EDGE_LOOP ( 'NONE', ( #44, #154 ) ) ;
#139 = PRODUCT_RELATED_PRODUCT_CATEGORY ( 'detail', '', ( #102 ) ) ;
#140 = EDGE_LOOP ( 'NONE', ( #61, #38, #127, #104 ) ) ;
#141 = ADVANCED_FACE ( 'NONE', ( #24 ), #29, .F. ) ;
#142 = APPROVAL_DATE_TIME ( #108, #45 ) ;
#143 = PERSON_AND_ORGANIZATION ( #163, #125 ) ;
#144 = CIRCLE ( 'NONE', #11, 10.00000000000000000 ) ;
#145 = PERSON_AND_ORGANIZATION_ROLE ( 'creator' ) ;
#146 = CLOSED_SHELL ( 'NONE', ( #95, #6, #80, #141 ) ) ;
#147 = EDGE_CURVE ( 'NONE', #39, #1, #37, .T. ) ;
#148 = VECTOR ( 'NONE', #9, 1000.000000000000000 ) ;
#149 = CC_DESIGN_APPROVAL ( #113, ( #27 ) ) ;
#150 = PERSON_AND_ORGANIZATION ( #163, #125 ) ;
#151 = APPROVAL_DATE_TIME ( #51, #41 ) ;
#152 =( GEOMETRIC_REPRESENTATION_CONTEXT ( 3 ) GLOBAL_UNCERTAINTY_ASSIGNED_CONTEXT ( ( #18 ) ) GLOBAL_UNIT_ASSIGNED_CONTEXT ( ( #46, #33, #69 ) ) REPRESENTATION_CONTEXT ( 'NONE', 'WORKASPACE' ) );
#153 = CARTESIAN_POINT ( 'NONE',  ( 10.00000000000000000, 1.224646799147353256E-15, 0.0000000000000000000 ) ) ;
#154 = ORIENTED_EDGE ( 'NONE', *, *, #115, .F. ) ;
#155 = DIRECTION ( 'NONE',  ( -0.0000000000000000000, -0.0000000000000000000, -1.000000000000000000 ) ) ;
#156 = COORDINATED_UNIVERSAL_TIME_OFFSET ( 5, 0, .BEHIND. ) ;
#157 = AXIS2_PLACEMENT_3D ( 'NONE', #25, #96, #5 ) ;
#158 = AXIS2_PLACEMENT_3D ( 'NONE', #53, #28, #43 ) ;
#159 = DIRECTION ( 'NONE',  ( 0.0000000000000000000, 0.0000000000000000000, 1.000000000000000000 ) ) ;
#160 = PERSON_AND_ORGANIZATION ( #163, #125 ) ;
#161 = APPLICATION_CONTEXT ( 'configuration controlled 3d designs of mechanical parts and assemblies' ) ;
#162 = SECURITY_CLASSIFICATION_LEVEL ( 'unclassified' ) ;
#163 = PERSON ( 'UNSPECIFIED', 'UNSPECIFIED', 'UNSPECIFIED', ('UNSPECIFIED'), ('UNSPECIFIED'), ('UNSPECIFIED') ) ;
#164 = COORDINATED_UNIVERSAL_TIME_OFFSET ( 5, 0, .BEHIND. ) ;
#165 = EDGE_LOOP ( 'NONE', ( #85, #105, #77, #137 ) ) ;
#166 = LOCAL_TIME ( 13, 35, 13.00000000000000000, #63 ) ;
#167 = PRODUCT_DEFINITION ( 'UNKNOWN', '', #27, #91 ) ;
#168 = AXIS2_PLACEMENT_3D ( 'NONE', #172, #159, #134 ) ;
#169 = AXIS2_PLACEMENT_3D ( 'NONE', #82, #155, #131 ) ;
#170 = LOCAL_TIME ( 13, 35, 13.00000000000000000, #156 ) ;
#171 = CARTESIAN_POINT ( 'NONE',  ( -10.00000000000000000, 0.0000000000000000000, 0.0000000000000000000 ) ) ;
#172 = CARTESIAN_POINT ( 'NONE',  ( 0.0000000000000000000, 0.0000000000000000000, 0.0000000000000000000 ) ) ;
#173 = ORIENTED_EDGE ( 'NONE', *, *, #133, .T. ) ;
#174 = APPLICATION_CONTEXT ( 'configuration controlled 3d designs of mechanical parts and assemblies' ) ;
#175 = APPLICATION_PROTOCOL_DEFINITION ( 'international standard', 'config_control_design', 1994, #174 ) ;
ENDSEC;
END-ISO-10303-21;
